Rocket Summer - Tell Me Something Good Chords & Tabs

 

Tell Me Something Good Chords & Tabs

Rocket Summer Chords & Tabs

Version: 1 Type: Tab

Tell Me Something Good Tab

Hey everyone this tab is of the high notes in the song PLEASE HELP me build on
this so we can tab this awesome song, i also have a little bit of the solo of
the background on verse two.
[ Tab from: http://www.guitartabs.cc/tabs/r/rocket_summer/tell_me_something_good_tab.html ]
(High Notes Of Verse)
e|---------------------------------------------------------------------------|
B|--3--5-5--7-7-7h8p7-7--8-8--7-7--------------------------------------------|
G|---------------------------------4-4-4-4-4---------------------------------|
D|---------------------------------------------------------------------------|
A|---------------------------------------------------------------------------|
E|---------------------------------------------------------------------------|



(Solo over verse 2)
e|---------------------------------------------------------------------------|
B|---3-----7~---------3------------------------------------------------------|
G|------2--------2h4-----4-2-4-2-0-------------------------------------------|
D|---------------------------------------------------------------------------|
A|---------------------------------------------------------------------------|
E|---------------------------------------------------------------------------|


Rocket summer fans help me finish the greatest rocket summer song ever