Rocket Summer - Skies So Blue Chords & Tabs

 

Skies So Blue Chords & Tabs

Rocket Summer Chords & Tabs

Version: 1 Type: Tab 0 ratings
1 star 2 stars 3 stars 4 stars 5 stars
comments

Skies So Blue Tab

   
-----------------------------------------------------------------------------
			     Skies So Blue - The Rocket Summer
-----------------------------------------------------------------------------
Tabbed by: Calixto
Email: Docd456@hotmail.com
Tuning: EADGBe

So far, I only have the intro. He repeats the same riff in the verse. If you find 
wrong, e-mail me. Sorry, this is my first tab.

  Intro: Repeat 2x
e|--x--x--x--x--|
B|-10-10--3--5--|
G|--9--7--2--4--|
D|--x--x--x--x--|
A|--x--x--x--x--|
E|--x--x--x--x--|
[ Tab from: http://www.guitartabs.cc/tabs/r/rocket_summer/skies_so_blue_tab.html ]
  Strum                     After 2x      After 4x, then into verse
e|--x--x--x--x---x--x--x-  -x-x--x--x-     --x--|
B|-10-10--3--5--10-10--3-  -x-x--x--x-     -10--|
G|--9--7--2--4---9--7--2-  -7/9/11/13-     --9--|
D|--x--x--x--x---x--x--x-  -x-x--x--x-     --7--|  pick this chord
A|--x--x--x--x---x--x--x-  -5/7/ 9/11-     --x--|
E|--x--x--x--x---x--x--x-  -x-x--x--x-     --x--|

  Lead Guitar
e|-------------------------------------------------------|
B|-10-10-9--------------------10-10-9--------------------|
G|---------11-9-11-11-9---------------11-9-11-11-9-11/13-|
D|----------------------12\11----------------------------|
A|-------------------------------------------------------|
E|-------------------------------------------------------|

| /  slide up
| \  slide down
| h  hammer-on
| p  pull-off
| ~  vibrato
| +  harmonic
| x  Mute note
Comments