Rocket Summer - Christmas Present Chords & Tabs

 

Christmas Present Chords & Tabs

Rocket Summer Chords & Tabs

Version: 1 Type: Tab 0 ratings
1 star 2 stars 3 stars 4 stars 5 stars
comments

Christmas Present Tab

------------------------------THE ROCKET SUMMER---------------------------
------------------------------CHRISTMAS PRESENT---------------------------

Bryce Avery rocks! unfortunately, not too many other people shared this belief,
so i had to tab it out myself haha. this is my first tab, but it is for the most
part correct. if you disagree, make the necessary adjustments. the first part just
repeats a bunch, alternating between the first and second, and the third and fourth
lines. hope you enjoy. I dedicate this to you, adrienne. you rock! thanks for hookin
me up with TRS!

- Tom Bottonari


e|------------------------------------------2-0---------------------------|
B|--------------2------4---2-4-2---2--2---------4-2-0--------2----2----4--|
G|----4--4---------4---------------4-----4-----------------4----4----4----|
D|----4-----4-------4--------------4------4-----------------4----4----4---|
A|----2------2------------------------------------------2-----------------|
E|------------------------------------------------------------------------|

e|------------------------------------------------------------------------|
B|----2-4-2---------------------------------------------------------------|
G|---------------4--4--4--4-----------------------------------------------|
D|---------------4--4--4--4-----------------------------------------------|
A|---------------2--2--2--2-----------------------------------------------|
E|------------0-----------------------------------------------------------|
[ Tab from: http://www.guitartabs.cc/tabs/r/rocket_summer/christmas_present_tab.html ]
e|------------------------------------------4-2-0-------------------------|
B|--------------2------4---2-4-2---2--2---------4-2----------2----2----4--|
G|----4--4---------4---------------4-----4-----------------4----4----4----|
D|----4-----4-------4--------------4------4-----------------4----4----4---|
A|----2------2------------------------------------------2-----------------|
E|------------------------------------------------------------------------|

e|------------------------------------------------------------------------|
B|----2-4-2---------------------------------------------------------------|
G|---------------4--4--4--4-----------------------------------------------|
D|---------------4--4--4--4-----------------------------------------------|
A|---------------2--2--2--2-----------------------------------------------|
E|------------0-----------------------------------------------------------|

1:24 into the song:

3X
e|---------------2-------------------4------------------------------------|
B|----4--------------------5----------------------------------------------|
G|-------4-3-4------4-3-4-----4-3-4---------------------------------------|
D|------------------------------------------------------------------------|
A|------------------------------------------------------------------------|
E|------------------------------------------------------------------------|

e|----4-----7--4----------------------------------------------------------|
B|----5-------------------------------------------------------------------|
G|------------------------------------------------------------------------|
D|------------------------------------------------------------------------|
A|------------------------------------------------------------------------|
E|------------------------------------------------------------------------|
Comments