Rocket From The Crypt - Venom Venom Chords & Tabs

 

Venom Venom Chords & Tabs

Rocket From The Crypt Chords & Tabs

Version: 1 Type: Tab 0 ratings
1 star 2 stars 3 stars 4 stars 5 stars
comments

Venom Venom Tab

   
venom venom by rocket from the crypt
[ Tab from: http://www.guitartabs.cc/tabs/r/rocket_from_the_crypt/venom_venom_tab.html ]
bass riff
e-----------------------------   this gos on pretty much all the way through
b----------------------------     the song
g-----------------------------
d-----------------------------
a---020232---------------
e---------------000--------
lead riff 1
e---------------------------
b---54-----54----------0-----0---etc
g-------5-------5----5-----5----
d-------------------------
a---------------------------
e---------------------------

riff 3
e----------------------
b----------------------
g---------------9---9--9-
d---------------9--9--9-
a-020232---7--7--7-------------
e---------------------

riff4=lights r low

e-------------------
b-------0------0----etc---then-------------0---etc------
g--544----4----4------------------54--2--------
d-------------------
a-------------------
e------------------

outro

e-76---------------repet till end
b------5--------
g
d
a
e
Comments