Rocket From The Crypt - On A Rope Chords & Tabs

 

On A Rope Chords & Tabs

Rocket From The Crypt Chords & Tabs

Version: 1 Type: Bass Tab 0 ratings
1 star 2 stars 3 stars 4 stars 5 stars
comments

On A Rope Bass Tab

Song Title: On A Rope
Artist: Rocket From The Crypt
--------------------------------------------
This is just a correction of the verse, the other one sounded ok 
but this way just sounded more correct when i tried it.
Original Tab by: Op Ivy17   correction by Espy333 (espy333@aol.com)
[ Tab from: http://www.guitartabs.cc/tabs/r/rocket_from_the_crypt/on_a_rope_btab.html ]
Verse
G------------------------------
D------------------------------
A---------------------0--------
E-2-0-2--2-0-2--2-0-2---2-0-2--
(repeats 'till refrain)
Refrain
G--------------------------------
D--------------------------------
A-5-5-5-5-2-2-2-2---------0-0-0-0
E-----------------2-2-2-2--------
(2 1/2x first time, 3 1/2x next two times)

Bridge
G-----------------------------------
D-----------------------------------
A-----------------------------------
E-2-0-2--2-0-2--2-0-2--2-0-2--2-0-2-

G---------------------------------
D---------------------------------
A-5555555522222222--------00000000
E-----------------22222222--------
(repeat this part 2x)

The refrain switches back to the chorus 
for two measures and then goes into the bridge.
After the bridge it switches back to the chorus for
3 1/2x and then goes to the verse music afterwards.

Comments