Rocket From The Crypt - Im Not Invisible Chords & Tabs

 

Im Not Invisible Chords & Tabs

Rocket From The Crypt Chords & Tabs

Version: 1 Type: Tab 0 ratings
1 star 2 stars 3 stars 4 stars 5 stars
comments

Im Not Invisible Tab

   
rocket from the crypt
"i'm not invisible"
from the atticus 2 cd
track one

=================
= RHYTHM GUITAR =
=================
intro
e-------------
b-------------
g-----5-5-5---
d-2-2-5-5-5-2- about 8x
a-2-2-3-3-3-2-
e-0-0-------0-

part before the first verse
e-----------------------------
b-----------------------------
g-----5-5-5---------2-4-2-----
d-2-2-5-5-5-5-5-4-5-2-4-2-5-4- 4x
a-2-2-3-3-3-5-5-4-5-0-2-0-5-4-
e-0-0-------3-3-2-3-------3-2-

verse
e-----------------------------
b-----------------------------
g-----5-5-5---------2-4-2-----
d-2-2-5-5-5-5-5-4-5-2-4-2-5-4- about 7x
a-2-2-3-3-3-5-5-4-5-0-2-0-5-4-
e-0-0-------3-3-2-3-------3-2-

e-----------------------
b-----------------------
g-----5-5-5-------4-4-4-
d-2-2-5-5-5-4-4-4-4-4-4- 1x
a-2-2-3-3-3-4-4-4-2-2-2-
e-0-0-------2-2-2-------

prechorus -- this might be right
e-------------------------------------
b-------------------------------------
g-5-5-5-5-----------------------------
d-5-5-5-5-5-5-5-5-9-9-9-9-14-14-14-14- 1x
a-3-3-3-3-5-5-5-5-9-9-9-9-14-14-14-14-
e---------3-3-3-3-7-7-7-7-12-12-12-12-

e---------------------------------
b---------------------------------
g-5-5-5-5-------------------------
d-5-5-5-5-5-5-5-5-9-9-9-9-9-9-9-9- 1x
a-3-3-3-3-5-5-5-5-9-9-9-9-9-9-9-9-
e---------3-3-3-3-7-7-7-7-7-7-7-7-

chorus
e-----------------------
b-----------------------
g-----5-5-5-------4-4-4-
d-2-2-5-5-5-4-4-4-4-4-4- 16x
a-2-2-3-3-3-4-4-4-2-2-2-
e-0-0-------2-2-2-------

part before the second verse
e-0~-
b-0~-
g-1~-
d-2~-
a-2~-
e-0~-
[ Tab from: http://www.guitartabs.cc/tabs/r/rocket_from_the_crypt/im_not_invisible_tab.html ]
bridge (where he just says "i'm not invisible" lotsa times)
e---------------------------------
b---------------------------------
g-------5-5-5-5-------2-2-4-4-4-4-
d-2-2-2-5-5-5-5-4-4-4-2-2-4-4-4-4-
a-2-2-2-3-3-3-3-4-4-4-0-0-2-2-2-2-
e-0-0-0---------2-2-2-------------

outro is the same as the verse

end on
e---
b---
g---
d-2-
a-2-
e-0-


===============
= LEAD GUITAR =
===============

intro
e----
b-5~-
g----
d----
a----
e----

part before the first verse
e-----------------------------------
b-5-5-5-7-7-7-7-8-8-8-8-12-12-12-12-
g-----------------------------------
d-----------------------------------
a-----------------------------------
e-----------------------------------

verse
e-----------------------------
b-----------------------------
g-----5-5-5---------2-4-2-----
d-2-2-5-5-5-5-5-4-5-2-4-2-5-4- about 7x
a-2-2-3-3-3-5-5-4-5-0-2-0-5-4-
e-0-0-------3-3-2-3-------3-2-

e-----------------------
b-----------------------
g-----5-5-5-------4-4-4-
d-2-2-5-5-5-4-4-4-4-4-4- 1x
a-2-2-3-3-3-4-4-4-2-2-2-
e-0-0-------2-2-2-------

prechorus
e-------------------------------------------------------------------
b-----------------------------------------------------0-0-0-0-0-0-0-
g-5-5-5-5-7-7-7-7-8-8-12-11-9-9-9-9-9-9-9-9-7-7-7-7-8-4-4-4-4-4-4-4-
d-x-x-x-x-x-x-x-x-x-x-xx--x-x-x-x-x-x-x-x-x-x-x-x-x-x---------------
a-3-3-3-3-5-5-5-5-6-6-10--9-7-7-7-7-7-7-7-7-5-5-5-5-6--------------- 1x
e-------------------------------------------------------------------

chorus
e-----------------------
b-----------------------
g-----5-5-5-------4-4-4-
d-2-2-5-5-5-4-4-4-4-4-4- 16x
a-2-2-3-3-3-4-4-4-2-2-2-
e-0-0-------2-2-2-------

part before second verse
e----
b-5~-
g----
d----
a----
e----

bridge ( the > means play lots of times)
e----
b-5>-
g----
d----
a----
e----

outro is the same as the verse.
Comments