Rocket From The Crypt - Cheetah Chords & Tabs

 

Cheetah Chords & Tabs

Rocket From The Crypt Chords & Tabs

Version: 1 Type: Bass Tab

Cheetah Bass Tab

----------------------------------------------------------------------------
		     CHEETAH - Rocket From The Crypt
----------------------------------------------------------------------------

Tabbed By : Aaron (defectiveyouth1)
e-mail: aaronsmells26@yahoo.com

Tuning:standard

*Note: there is an intro to the song, but I haven't figured it out yet. When I do get 
I'll enter it in.

[ Tab from: http://www.guitartabs.cc/tabs/r/rocket_from_the_crypt/cheetah_btab.html ]
after intro    (1x)         (rest of the time)
G|----------------|--------------------|
D|----------------|--------------------|
A|----------3-3-5-|-5---------3-3-5----|
E|--5-535-53---3--|--35-535-53---3-----|
    "One second..."
    fill thing
G|--------------------|
D|--------------------|
A|------------3~--5~--|
E|-3-5~-3-5~-3---3----|

    most of the song
G|-------------------------|
D|-------------------------|
A|------------333--555-----|
E|--5553-5553----3----3----|


I'm not so sure about the timing and when each one comes in, but these are the three 
parts that I heard other than the intro. Let me know if it's wrong or if you know any other parts.