Rock N Roll Soldiers - Funny Little Feeling Chords & Tabs

 

Funny Little Feeling Chords & Tabs

Rock N Roll Soldiers Chords & Tabs

Version: 1 Type: Tab 0 ratings
1 star 2 stars 3 stars 4 stars 5 stars
comments

Funny Little Feeling Tab

Tuning:standard

e|-----------12--------------------------------------------------14----|
B|-------14---------14---14h16h14---12-14-------14-16-14-17-14---------|
G|---13---------------------------------------13-----------------------|
D|---------------------------------------------------------------------|
A|---------------------------------------------------------------------|
E|---------------------------------------------------------------------|
[ Tab from: http://www.guitartabs.cc/tabs/r/rock_n_roll_soldiers/funny_little_feeling_tab.html ]
     repeat ^

e|----------------------14-------14--------14-------19-------------------|
B|------14-16-14-17-14----17-14-----17-14----17-14-----------------------|
G|---13------------------------------------------------------------------|
D|-----------------------------------------------------------------------|
A|-----------------------------------------------------------------------|
E|-----------------------------------------------------------------------|
 end
Comments