Rock N Roll Soldiers - Barbarian Chords & Tabs

 

Barbarian Chords & Tabs

Rock N Roll Soldiers Chords & Tabs

Version: 1 Type: Tab

Barbarian Tab

                           ROCK N ROLL SOLDIERS
                                BARBARIAN


STANDARD TUNING
EADGBe

-------------------------|
-------------------------|
-------------------------|
--11-10-11-8-8-8---------|x7
---9--8--9-6-6-6---------|
-------------------------|

on the eighth time
-------------------|
-------------------|
-------------------|
--11-10-11-8-------|
---9--8--9-6-------|
-------------------|

-----------------------------------------------------------------|
-----------------------------------------------------------------|
-----------------------------------------------------------------|
--11-10-11-8-8-8-11-10-11-8-8-8-11-10-11-8-8-8-8/10-10-10--------|x2
---9--8--9-6-6-6--9--8--9-6-6-6--9--8--9-6-6-6-6/-8--8--8--------|
-----------------------------------------------------------------|

chorus
--------------------------------------------------------------|
--------------------------------------------------------------|
---8-8----11-11------------------8-8----11-11-----------------|
---8-8----11-11----6-6----8-8----8-8----11-11----6-6----8-8---|
---6-6-----9--9----6-6----8-8----6-6-----9--9----6-6----8-8---|
-------------------4-4----6-6--------------------4-4----6-6---|

heres a little fill
-----------------------------------------------------------------|
---------------------------15b-----------------------------------|
--13-16-13--------13-16-13------13-16-13-------------------------|
-----------16-16------------------------16-16-13-11-11-----------|x2
-------------------------------------------------------13-11-11--|
-----------------------------------------------------------------|

-----------------------------------------------------------------|
-----------------------------------------------------------------|
-----------------------------------------------------------------|
--11-10-11-8-8-8-11-10-11-8-8-8-11-10-11-8-8-8-8/10-10-10--------|x2
---9--8--9-6-6-6--9--8--9-6-6-6--9--8--9-6-6-6-6/-8--8--8--------|
-----------------------------------------------------------------|

[ Tab from: http://www.guitartabs.cc/tabs/r/rock_n_roll_soldiers/barbarian_tab.html ]
chorus
--------------------------------------------------------------|
--------------------------------------------------------------|
---8-8----11-11------------------8-8----11-11-----------------|
---8-8----11-11----6-6----8-8----8-8----11-11----6-6----8-8---|
---6-6-----9--9----6-6----8-8----6-6-----9--9----6-6----8-8---|
-------------------4-4----6-6--------------------4-4----6-6---|

solo
-------------------------------------------------------------------------|
--16-14----16-14----16-14----16-14----16-14------------------------------|
--------15-------15-------15-------15-------15---13b-11----11-13b-11-----|
--------------------------------------------------------13-----------13--|
-------------------------------------------------------------------------|
-------------------------------------------------------------------------|

--------------------------------------------------------------|
--------16-14----16-14----16-14----16-14----16-14----14-14b---|
--11-13-------15-------15-------15-------15-------15----------|
--------------------------------------------------------------|
--------------------------------------------------------------|
--------------------------------------------------------------|

chorus
--------------------------------------------------------------|
--------------------------------------------------------------|
---8-8----11-11------------------8-8----11-11-----------------|
---8-8----11-11----6-6----8-8----8-8----11-11----6-6----8-8---|
---6-6-----9--9----6-6----8-8----6-6-----9--9----6-6----8-8---|
-------------------4-4----6-6--------------------4-4----6-6---|


-----------------------------------------------------------------|
---------------------------15b-----------------------------------|
--13-16-13--------13-16-13------13-16-13-------------------------|
-----------16-16------------------------16-16-13-11-11-----------|x2
-------------------------------------------------------13-11-11--|
-----------------------------------------------------------------|

---------------------------|
---------------------------|
---------------------8-----|
--13-11-11-----------8-----|
-----------13-11-11--6-----|
---------------------------|

good song
peace