Roberts Sam - Brother Down Chords & Tabs

 

Brother Down Chords & Tabs

Roberts Sam Chords & Tabs

Version: 1 Type: Tab

Brother Down Tab

   
Brother Down
by Sam Roberts

tabbed by Adam Hill

This song is all open chords, standard tuning, no capo or anything.
It's pretty simple, yet catchy:

Main Riff:
   Dm                    C
e|-----1---1-1-1h3p1---------0---1-1-1h3h1-1---|
B|-----3---3-3-3-3-3---------1---1-1-1-1-1-3p1-|
G|---2-2-------------2p0-----0-----------------|
D|-0-----------------------2-------------------|
A|-----------------------3---------------------|
E|---------------------------------------------|

   G
e|-----3---1-1-1h3p1-1-------3---1-1-1h3p1-1--||
B|-----3---3-3-3-3-3---------3---3-3-3-3-3----||
G|-----0---------------------0----------------||
D|---0---------------------0------------------||
A|--------------------------------------------||
E|-3---------------------3--------------------||

[ Tab from: http://www.guitartabs.cc/tabs/r/roberts_sam/brother_down_tab.html ]
Chorus:
[two bar bass fill, followed by the second half of the main riff]

Solo over main:

e|----------------------------------------------------|
B|----------------------------------------------------|
G|--10----9--7---10----9--7----4----5--7---4----5--7--|
D|----------------------------------------------------|
A|----------------------------------------------------|
E|----------------------------------------------------|

e|----------------------------------------------------||
B|----------------------------------------------------||
G|--10----9--7---10----9--7---14---12--10--14--12--10-||
D|----------------------------------------------------||
A|----------------------------------------------------||
E|----------------------------------------------------||

That's just about it. Enjoy!
Any questions, comments, or concerns can be directed to me, Adam, at
aseh001@hotmail.com