Robert A From Nm - The Ball Song Chords & Tabs

 

The Ball Song Chords & Tabs

Robert A From Nm Chords & Tabs

Version: 1 Type: Tab 0 ratings
1 star 2 stars 3 stars 4 stars 5 stars
comments

The Ball Song Tab

1--------------------------------------
2--------------------------------------
3--------------------------------------
4---7-7--7-7---------------------------
5---5-5--4-4--7-7--2-4-----------------
6-------------5-4--0-------------------
[ Tab from: http://www.guitartabs.cc/tabs/r/robert_a_from_nm/the_ball_song_tab.html ]
1----------------------------------------------------
2----------------------------------------------------
3----------------------------------------------------
4----------------------------------------------------
5----------------------------------------------------
6---0-0-0-0-0--7-7-7-7-7--5-5-5-5-5-7-7-7-7-7--------

1--------------------------------------
2--------------------------------------
3--------------------------------------
4--------------------------------------
5-----7-0-7---7-0-7--------------------------
6---0-------0----------------------------
Comments