Robbie Williams - Something Stupid Chords & Tabs

 

Something Stupid Chords & Tabs

Robbie Williams Chords & Tabs

Version: 1 Type: Tab 0 ratings
1 star 2 stars 3 stars 4 stars 5 stars
comments

Something Stupid Tab

Title: Something stupid
Artist: Robbie Williams & Nicole Kidman
Album: Swing When You’re Winning
Tabbed by Mike Stelmach
[ Tab from: http://www.guitartabs.cc/tabs/r/robbie_williams/something_stupid_tab.html ]
Intro:
|------7-8-10-10-8-7h8-5-----10-8-7h8-5----------------------------|
|--8-8----------------------------------8-7h8-------8-8------------|
|---------------------------------------------7-7-9----------------|
|------------------------------------------------------------------|
|------------------------------------------------------------------|
|------------------------------------------------------------------|


|-----------7-10-8-7h8---------------------------------------------|
|------8-10------------8-------------------------------------------|
|--7-9---------------------7-5-4-----------------------------------|
|---------------------------------7-5------------------------------|
|------------------------------------------------------------------|
|------------------------------------------------------------------|

If you have any corrections, please put it in e-mail m_stelmach@wp.pl
Comments