Robbie Williams - Radio Chords & Tabs

 

Radio Chords & Tabs

Robbie Williams Chords & Tabs

Version: 1 Type: Chords 0 ratings
1 star 2 stars 3 stars 4 stars 5 stars
comments

Radio Chords

   
-------------------------------------------------------------------------------
			     RADIO - robbie williams
-------------------------------------------------------------------------------
Tabbed by:warbdaniel (rhythmist)
Email:warbdaniel@hotmail.com

Tuning: standard

   this is repeated non stop through the song.
         em                                          a major
[ Tab from: http://www.guitartabs.cc/tabs/r/robbie_williams/radio_crd.html ]
e|---------------------------------------------------------------------------|
B|------------------------------------------------------2--------------------|
G|------------------------------------------------------2--------------------|
D|--------2---------------------------------------------2--------------------|
A|--------2------------------------------------------------------------------|
E|------------------------------------------------------x--------------------|
            1      and      2     and      3    and    4    (rhythm)
keep counting this when u play, change chords (em to a OR A TO E) when u
reach the 4th beat.

For the bit that changes...

e|---x--------x--------x--------x--------x-----------------------------------|
B|---9--------7--------5--------3--------4-----------------------------------|
G|---9--------7--------5--------3--------4-----------------------------------|
D|---9--------7--------5--------3--------4-----------------------------------|
A|---7--------5--------3--------1--------2-----------------------------------|
E|---x--------x--------x--------x--------x-----------------------------------|     
    x 2       x 2      x 2      x 1      x 1

| x  Mute note
===============================================================================
Comments