Robbie Williams - Advertising Space Chords & Tabs

 

Advertising Space Chords & Tabs

Robbie Williams Chords & Tabs

Version: 1 Type: Bass Tab

Advertising Space Bass Tab


Intro

G------------4-5--4--0-----------4-5--4--0-------------4-5--4--0--|
D------5--2----------------5--2------------------5--2-------------|
A---3-------------------3---------------------3-------------------|
E-----------------------------------------------------------------|

Verse

G------------------------------------------------------------------|
D-----------5------5-3------5-----------------------5--------------|
A--3------3-------------------3---3--------3------3----0-2-0-----8-|
E-----------------------------------3-------------------------3----|
[ Tab from: http://www.guitartabs.cc/tabs/r/robbie_williams/advertising_space_btab.html ]
G-------------------|
D-------------------|
A---8--7--5--3------|
E-----------------3-|

Bridge

G------2--4--5--7-5-2--------------------------------------------------------|
D-----2---------------2-------2---2-0-------0-2--3-2-0--3-------3------3-2-0-|
A--0-------------------------2-------------0-------------------3-------------|
E----------------------------------------------------------------------------|


Chorus

G-----------------4-5-4-0-2----2----------------------|
D---------5--2-------------------5----5-3----3--3-2-0-|
A--3--------------------------------------------------|
E-----------------------------------------------------|