Rob Zombie - Superbeast Chords & Tabs

 

Superbeast Chords & Tabs

Rob Zombie Chords & Tabs

Version: 1 Type: Bass Tab 0 ratings
1 star 2 stars 3 stars 4 stars 5 stars
comments

Superbeast Bass Tab

Intro, and all around in other parts.
G----------------------------------------------------------------------|
D----------------------------------------------------------------------|
A--8--\--7--7--7--7--7--7--7---7--\--6--6--6--6--6--6--6--6------------|
E----------------------------------------------------------------------|

G----------------------------------------------------------------------|
D----------------------------------------------------------------------|
A--3--3--3--3--3--3--3--3---3--\--4--4--4--4--4--4--4--4---------------|
E----------------------------------------------------------------------|

G----------------------------------------------------------------------|
D----------------------------------------------------------------------|
A--8--\--7--7--7--7--7--7--7---7--\--6--6--6--6--6--6--6--6------------|
E----------------------------------------------------------------------|
[ Tab from: http://www.guitartabs.cc/tabs/r/rob_zombie/superbeast_btab.html ]
G----------------------------------------------------------------------|
D----------------------------------------------------------------------|
A--3--3--3--3--3--3--3--3---3--\--2--2--2--2--2--2--2--2---------------|
E----------------------------------------------------------------------|

Pre-Verse
G-----------------------------------------------------------------------|
D-----------------------------------------------------------------------|
A-----------------------------------------------------------------------|
E-1--0--1--0--0--5--1--0--1--0--0--3--1--0--1--0--0--5--1--0--1--0--0-2-|

Verse
G----------------------------------------------------------------------|
D----------------------------------------------------------------------|
A----------------------------------------------------------------------|
E---0-----0--0-----0-----0-----0--0--5---------------------------------|

Chorus
G----------------------------------------------------------------------|
D----------------------------------------------------------------------|
A----------------------------------------------------------------------|
E--1--0--1--0--0--5--------0--1--0--1--0--0--3--0--1--0--1--0--0--5----|

G-----------------------------|
D-----------------------------|
A-----------------------------|
E--0--1--0--1--0--0--2--------|
Comments