Rob Zombie - Never Gonna Stop Remix Chords & Tabs

 

Never Gonna Stop Remix Chords & Tabs

Rob Zombie Chords & Tabs

Version: 1 Type: Tab 0 ratings
1 star 2 stars 3 stars 4 stars 5 stars
comments

Never Gonna Stop Remix Tab

sup this is wilson "stiffy" keelermake another sweet tab just for you.
its in drop d. but i play it in mudvayne's tuning which is drop c or b. i think its b.
the solo is close but is probly wrong but the rest is right.


intro

(0:00-0:07)
|------------------------------------------------|
|------------------------------------------------|
|------------------------------------------------|
|------------------------------------------------|
|------------------------------------------------|
|--000-000-000-000-000-000-000-4-----------------|

(0:07-0:23)
|------------------------------------------------|
|------------------------------------------------|
|------------------------------------------------|  x2
|------------------------------------------------|
|--0010-0010-0010-0010-0010-0010-0010-0010---2---|
|------------------------------------------------|

(0:23-0:38)
|-00-10-00-12-00-8-00-8-00-8/10-----00-10-00-12-00-8-00-8-00-8\7----|
|-------------------------------------------------------------------|
|-------------------------------------------------------------------|  x2
|-------------------------------------------------------------------| 
|-------------------------------------------------------------------|
|-------------------------------------------------------------------|


verse

(0:38-0:54)
|-------------------------------------------------------------------| 
|-------------------------------------------------------------------|
|-------------------------------------------------------------------|
|-------------------------------------------------------------------| 
|-------------------------------------------------------------------|
|--000---000-9p0-9p0--000---000---000-9p0-9p0-000-------------------|

interlude

(0:54-1:09)      guitar 1
|----9-11-777/9---------------------------------------| 
|-----------------------------------------------------|
|-----------------------------------------------------|------|
|-----------------------------------------------------|      |
|-----------------------------------------------------|      |
|-----------------------------------------------------|      |
                                                             |repeat at
(0:54-1:09)      guitar 2                                    | (1:00)
|-----------------------------------------------------|      |
|-----------------------------------------------------|      |
|-----------------------------------------------------|      |
|-----------------------------------------------------|------| 
|-----------------------------------------------------|
|-000----000----000-9p0-9p0-000-9p0-9p0---------------|

part between interlude and verse
(1:09-1:32)       
|------------------------------------------------|
|------------------------------------------------|
|------------------------------------------------|
|------------------------------------------------| 
|--0010-0010-0010-0010-0010-0010-0010-0010---2---| 
|------------------------------------------------|

guitar 2 will play the above thru till 1:32 and guitar 1 will play the below at 1:17 and play it twice

|-00-9-00-11-00-7-00-7-00-7/9-----00-9-00-11-00-7-00-7-00-7\6-------|
|-------------------------------------------------------------------|
|-------------------------------------------------------------------|
|-------------------------------------------------------------------| 
|-------------------------------------------------------------------|
|-------------------------------------------------------------------|

verse 2

(1:32-1:47)
|-------------------------------------------------------------------| 
|-------------------------------------------------------------------|
|-------------------------------------------------------------------|
|-------------------------------------------------------------------| 
|-------------------------------------------------------------------|
|--000---000-9p0-9p0--000---000---000-9p0-9p0-000-------------------|

interlude 2
[ Tab from: http://www.guitartabs.cc/tabs/r/rob_zombie/never_gonna_stop_remix_tab.html ]
(1:47-2:02)      guitar 1
|----9-11-777/9---------------------------------------| 
|-----------------------------------------------------|
|-----------------------------------------------------|------|
|-----------------------------------------------------|      |
|-----------------------------------------------------|      |
|-----------------------------------------------------|      |
                                                             |repeat at
(1:47-2:02)      guitar 2                                    | (1:55)
|-----------------------------------------------------|      |
|-----------------------------------------------------|      |
|-----------------------------------------------------|      |
|-----------------------------------------------------|------| 
|-----------------------------------------------------|
|-000----000----000-9p0-9p0-000-9p0-9p0---------------|

solo
(2:02-2:33)
|-9-9-9--13b---11-11-11-13-11--9--11-11-11-13-11-9-9--17b-17-18b--17-18b---|
|------------------------------------------------------------------------|
|------------------------------------------------------------------------|
|------------------------------------------------------------------------|
|------------------------------------------------------------------------|
|------------------------------------------------------------------------|

|--17-18b-18b-18b-17-15---18b-18-19b-19b-19b-19b-18-15--7h8p7h8p7h8p7h8p7|
|------------------------------------------------------------------------|
|------------------------------------------------------------------------|
|------------------------------------------------------------------------|
|------------------------------------------------------------------------|
|------------------------------------------------------------------------|

|--9h10p9h10p9h10p9h10p9h10-10-9-141414-6---11b 11h12p11h12p11h12p11-----|
|------------------------------------------------------------------------|
|------------------------------------------------------------------------|
|------------------------------------------------------------------------|
|------------------------------------------------------------------------|
|------------------------------------------------------------------------|

|--23-25-24--23-25-24----------------------------------------------------|
|------------------------------------------------------------------------|
|------------------------------------------------------------------------|
|------------------------------------------------------------------------|
|------------------------------------------------------------------------|
|------------------------------------------------------------------------|

part between solo and verse
(2:33-2:49)
|------------------------------------------------|
|------------------------------------------------|
|------------------------------------------------|
|------------------------------------------------| x2
|------------------------------------------------|
|--000-000-000-000-000-000-000-4-----------------|

(2:49-3:04)       
|------------------------------------------------|
|------------------------------------------------|
|------------------------------------------------|
|------------------------------------------------| 
|--0010-0010-0010-0010-0010-0010-0010-0010---2---| 
|------------------------------------------------|

guitar 2 will play the above thru till 3:04 and guitar 1 will play the below at 2:49 and play it twice

|-00-9-00-11-00-7-00-7-00-7/9-----00-9-00-11-00-7-00-7-00-7\6-------|
|-------------------------------------------------------------------|
|-------------------------------------------------------------------|
|-------------------------------------------------------------------| 
|-------------------------------------------------------------------|
|-------------------------------------------------------------------|

verse 3
(3:04-3:19)
|-------------------------------------------------------------------| 
|-------------------------------------------------------------------|
|-------------------------------------------------------------------|
|-------------------------------------------------------------------| 
|-------------------------------------------------------------------|
|--000---000-9p0-9p0--000---000---000-9p0-9p0-000-------------------|

interlude 3

(3:19-3:34)      guitar 1
|----9-11-777/9---------------------------------------| 
|-----------------------------------------------------|
|-----------------------------------------------------|------|
|-----------------------------------------------------|      |
|-----------------------------------------------------|      |
|-----------------------------------------------------|      |
                                                             |repeat at
(3:19-3:34)      guitar 2                                    | (3:27)
|-----------------------------------------------------|      |
|-----------------------------------------------------|      |
|-----------------------------------------------------|      |
|-----------------------------------------------------|------| 
|-----------------------------------------------------|
|-000----000----000-9p0-9p0-000-9p0-9p0---------------|
Comments