Rob Zombie - Never Gonna Stop Chords & Tabs

 

Never Gonna Stop Chords & Tabs

Rob Zombie Chords & Tabs

Version: 1 Type: Bass Tab 0 ratings
1 star 2 stars 3 stars 4 stars 5 stars
comments

Never Gonna Stop Bass Tab

Rob Zombie: Never Gonna Stop (The Red, Red Kroovy)
Tabbed by Shadowlord
email: Crovus007@netscape.net

I've seen all too few songs by the Zombie man, so I thought I'd throw 
in a few off the new one.


    1st Riff (repeated many times)                                              
G-------------------------------------------------------------------------------
D-------------------------------------------------------------------------------
A---3--3--3--------1--3--1------------------------------------------------------
E------------1--3---------------------------------------------------------------
                                                                                

                                                                                
G-------------------------------------------------------------------------------
D-------------------------------------------------------------------------------
A-------------------------------------------------------------------------------
E-------------------------------------------------------------------------------
                                                                                
[ Tab from: http://www.guitartabs.cc/tabs/r/rob_zombie/never_gonna_stop_btab.html ]
                      2nd Riff (repeated a couple times)                        
G-------------------------------------------------------------------------------
D-------------------------------------------------------------------------------
A------------------------------------1-----------------1-----------------1------
E---------------------3--3--3--3--3-----3--3--3--3--3-----3--3--3--3--3---------
                                                                                

                                                                                
G-------------------------------------------------------------------------------
D-------------------------------------------------------------------------------
A-------------------------------------------------------------------------------
E---3--3--3--3--3---------------------------------------------------------------
                                                                                

    3rd Riff                                                                    
G-------------------------------------------------------------------------------
D-------------------------------------------------------------------------------
A---------------------------------1---------------------------------------------
E---1--1-----1--1-----3--3--1--3--------1--1-----1--1-----3--3--1--3\------1----
                                                                                

                                                                                
G-------------------------------------------------------------------------------
D-------------------------------------------------------------------------------
A------------------------------1------------------------------------------------
E---1-----1--1-----3--3--1--3--------------1--1-----1--1-----3--3--1--3\--------
Comments