Rob Zombie - Dragula Chords & Tabs

 

Dragula Chords & Tabs

Rob Zombie Chords & Tabs

Version: 1 Type: Bass Tab 0 ratings
1 star 2 stars 3 stars 4 stars 5 stars
comments

Dragula Bass Tab

   
Tabbed by: Dustin Johnson 
Artist: Rob Zombie
Song: "Dragula"
Album: Hellbilly Deluxe

Tune Down 2 whole steps: (C, F, Bb, Eb)

|-----20----|-------------------|------4-----|
| ]-------[ |*-----------------*| ]--------[ |
|-----------|*-----------------*|------------|
|-----------|--0-0-0-0-0-0-0-0--|------------|

Chorus:                  Bend 1/4
|-----------------|---------------|-----------------|---------------|
|*----------------|---------------|-----------------|--------------*|
|*----------------|-------------^-|-----------------|--------------*|
|-0-0-0-0-0-0-r-0-|-0-0-r-0-r-0-3-|-0-0-0-0-0-0-r-0-|-r-0-r-0-3-2-3-|

|-----4-----|
| ]-------[ |
|-----------|
|-----------|
[ Tab from: http://www.guitartabs.cc/tabs/r/rob_zombie/dragula_btab.html ]
                 Bridge:
|---------------|------------------|-----------------|-----------------|
|---------------|*-0-0-0-0-0-0-0-0-|-0-0-0-0-0-0-0-0-|-----------------|
|---------------|*-----------------|-----------------|-----------------|
|-r-0-r-0-3-2-3-|------------------|-----------------|-0-0-0-0-0-0-r-0-|

             1/4                                1/4
|----------------|-----------------|---------------|-----------------|
|---------------*|-----------------|---------------|-----------------|
|-------------^-*|-----------------|-------------^-|-----------------|
|-0-0-r-0-r-0-3--|-0-0-0-0-0-0-r-0-|-0-0-r-0-r-0-3-|-0-0-0-0-0-0-r-0-|

                             1/4
|---------------|---------------|
|---------------|---------------|
|---------------|-------------^-|
|-0-0-r-0-3-2-3-|-0-0-r-0-r-0-3-|


Chorus:                  Bend 1/4
|-----------------|---------------|-----------------|---------------|
|*----------------|---------------|-----------------|--------------*|
|*----------------|-------------^-|-----------------|--------------*|
|-0-0-0-0-0-0-r-0-|-0-0-r-0-r-0-3-|-0-0-0-0-0-0-r-0-|-r-0-r-0-3-2-3-|

Outro:
|-----8-----|
| ]-------[ |
|-----------|
|-----------|
This is a very very easy song to play
Comments