Rob Zombie - Demon Speeding Chords & Tabs

 

Rob Zombie Chords & Tabs

Version: 1 Type: Tab 0 ratings
1 star 2 stars 3 stars 4 stars 5 stars
comments

Demon Speeding Tab

   
Rob Zombie - Demon Speeding
Tabbed By: Myke
EMail: A_Violet_Fluid@hotmail.com

Drop D Tuning (Transposed TO C)

Start :

|--------|
|--------|
|--------|
|--7--6--|
|--7--6--|
|--7--6--|

Intro/Chorus :

|-----------------------------------|
|-----------------------------------|
|-----------------------------------|
|-----------4------4----4------7-6--|
|--1-1-1-1--4-1-1--4-1--4-1-1--7-6--|
|--1-1-1-1--4-1-1--4-1--4-1-1--7-6--|

Intro/Chorus 

|------------------------------------------|
|------------------------------------------|
|--11/8-8-8--11/8-8--11/8--11-11-8--14-13--|
|------------------------------------------|
|------------------------------------------|
|------------------------------------------|

Verse :

|--------------------------------------|
|--------------------------------------|
|--------------------------------------|
|--4----------------4------4----4------|
|--4-1-1-1-1-1-1-1--4-1-1--4-1--4-1-1--|
|--4-1-1-1-1-1-1-1--4-1-1--4-1--4-1-1--|
     .............    ...    .    ...

Verse :

|------------------------------------------------------|
|------------------------------------------------------|
|--11/8-8-8-8-8-8-8-11/8-8-11/8-11/8-8--------/14--13--|
|------------------------------------------------------|
|------------------------------------------------------|
|------------------------------------------------------|

Solo :
[ Tab from: http://www.guitartabs.cc/tabs/r/rob_zombie/demon_speeding_tab.html ]
|-------------------------------------------------------------------|
|-------------------------------------------------------------------|
|-------------------------------------------------------------------|
|--4---------------4---------------4---------------4----------------|
|--4-1-1-1-1-1-1-1-4-1-1-1-1-1-1-1-4-1-1-1-1-1-1-1-4-1-1-1-1-1-1-1--|
|--4-1-1-1-1-1-1-1-4-1-1-1-1-1-1-1-4-1-1-1-1-1-1-1-4-1-1-1-1-1-1-1--|
     .............   .............   .............   .............

Solo :

|----------------------------------------------------14b-14b-14b-14b-14b-14b-14b-14b--|
|-----------15b17r15-----------15b17r17--------15-15----------------------------------|
|--15-15-15-----------15-15-15-----------15-15----------------------------------------|
|-------------------------------------------------------------------------------------|
|-------------------------------------------------------------------------------------|
|-------------------------------------------------------------------------------------|

A_Violet_Fluid@hotmail.com
2OO2

===========


Rob Zombie - Demon Speeding
James Hartin (slipknot_19872002@yahoo.com)

Rob Zombie:Demon Speeding
This is not the actual transcript of the song but it is really close.
Tabbed by James Hartin
use dropped d tuning

intro                     repeat a few times
|----------------------|-----------------------------------------------|
|----------------------|-----------------------------------------------|
|----------------------|-----------------------------------------------|
|----------------------|-----------------------------------------------|
|-3-xxxx-3-xxxx-2-3-xx-|--6-5-xxxxxxxx-3-xx-3-x-3-xx-6-5---------------|
|-3-xxxx-3-xxxx-2-3-xx-|--6-5-xxxxxxxx-3-xx-3-x-3-xx-6-5---------------|


|-----------------------------------------|
|-----------------------------------------|
|-----------------------------------------|
|-----------------------------------------|
|-3-xxxxxxxx-3-xx-3-x-3-2-0-3-------------|
|-3-xxxxxxxx-3-xx-3-x-3-2-0-3-------------|
Comments