Rob Thomas - When The Heartache Ends Chords & Tabs

 

When The Heartache Ends Chords & Tabs

Rob Thomas Chords & Tabs

Version: 2 Type: Chords 0 ratings
1 star 2 stars 3 stars 4 stars 5 stars
comments

When The Heartache Ends Chords

   
-------------------------------------------------------------------------------
		      Rob Thomas - When The Heartache Ends
-------------------------------------------------------------------------------
Tabbed by: Jordy

Find the best Rob Thomas and Matchbox Twenty tabs at 
http://www.albumtabs.cjb.net

Tuning: Normal

CAPO 3

    Em   Cadd9  G
e|---0-----3----3------------------------------------------------------------|
B|---0-----3----3------------------------------------------------------------|
G|---0-----0----0------------------------------------------------------------|
D|---2-----2----0------------------------------------------------------------|
A|---2-----3----2------------------------------------------------------------|
E|---0-----x----3------------------------------------------------------------|

Intro: Em Cadd9 G 2x

Em			  Cadd9  G
It's never easy and you never know
Em			       Cadd9	  G
What leaves you crying and what makes you whole
Em			     Cadd9	G
There ain't no way that I can hold it down
Em		   Cadd9	G
Falling to pieces, forever in doubt
[ Tab from: http://www.guitartabs.cc/tabs/r/rob_thomas/when_the_heartache_ends_crd_ver_2.html ]
CHORUS:
	Cadd9  G	       Cadd9	  G
But it's alright, why don't you tell me again
Em				  Cadd9	      G
How you'll still be there when the heartache ends
        Cadd9  G		Cadd9	     G 
But it's alright, why don't you tell me, my friend
Em				  Cadd9	      G
How you'll still be there when the heartache ends
     Em  Cadd9  G     Em	Cadd9  G
Hold on            oh no no no

Em			  Cadd9	     G
There ain't nobody who can show you how
Em			       Cadd9	G
To find the surface when you're underground
Em			       Cadd9	   G
There ain't no blanket that can hide this cold
Em			  Cadd9	      G
There ain't no memory that ever gets old

REPEAT CHORUS

      Em
And I move all directions

To the corners and the outskirts
          Cadd9
While the lovers and the lonely

Start to whisper all about me
         G
And if I stand here silent
			     Cadd9
I almost start to feel you fading in
 G
Telling me hold on cuz it's gonna be

REPEAT CHORUS

Em				  Cadd9	      G
How you'll still be there when the heartache ends
Em			       Cadd9	  G
Say you'll be with me when the heartache ends
Comments