Rob Thomas - Something To Be Chords & Tabs

 

Something To Be Chords & Tabs

Rob Thomas Chords & Tabs

Version: 1 Type: Tab 0 ratings
1 star 2 stars 3 stars 4 stars 5 stars
comments

Something To Be Tab

   
My name is Tom and i am 14. i have benn playing for about 1 1/2 yrs. now. this is my 
tab, so show a little mercy.
I couldn't find this anywhere, probably cuz it just came out like 3 weeks ago, but, here it is
Something to be, Rob Thomas. this is only the chords and intro riff, i guess you'll just 
to figure the rest out yourself.
[ Tab from: http://www.guitartabs.cc/tabs/r/rob_thomas/something_to_be_tab.html ]
e----------------------------------------------------------------------------|
b----------------------------------------------------------------------------|
g-----------9---------11^12^11-----------------9------11^12^11----9----------|
d----11-------------------------------11-----------------------------11----9-|
a----------------------------------------------------------------------------|
E----------------------------------------------------------------------------|

here are the chords for the bridge and some of the chorus

Db e---1----  E e--0----  F# e--2---|
   b---2----    b--0----     b--2---|
   g---1----    g--1----     g--3---|
   d---3----    d--2----     d--4---|
   a---4----    a--2----     a--4---|
   E---1----    E--0----     E--2---|

Db E F# E
Comments