Rob Thomas - All That I Am Chords & Tabs

 

All That I Am Chords & Tabs

Rob Thomas Chords & Tabs

Version: 1 Type: Chords 0 ratings
1 star 2 stars 3 stars 4 stars 5 stars
comments

All That I Am Chords

   
-------------------------------------------------------------------------------
			  Rob Thomas - All That I Am
-------------------------------------------------------------------------------
Tabbed by: Jordy

Find the best Matchbox Twenty and Rob Thomas tabs at
http://albumtabs.cjb.net

Tuning: Normal
    Em  D  G  C
e|---0--2--3--0--------------------------------------------------------------|
B|---0--3--3--1--------------------------------------------------------------|
G|---0--2--0--0--------------------------------------------------------------|
D|---2--0--0--2--------------------------------------------------------------|
A|---2--x--2--3--------------------------------------------------------------|
E|---0--x--3--x--------------------------------------------------------------|
[ Tab from: http://www.guitartabs.cc/tabs/r/rob_thomas/all_that_i_am_crd.html ]
Intro:
    Em     Em     Em     Em
e|----------------------------------------|
B|-----0------0------0------0-------------|
G|-------0------0------0------0-----------|
D|--2------2------2------2----------------|
A|----------------------------------------|
E|----------------------------------------|

Em
I am the one winged bird for flying

Sinking quickly to the ground

See your faith in me subsiding
		     D
See you prime for giving in
		     Em
I give you all that I am

Em
I am the sound of love's arriving

Echoed softly on the sand

Lay your head upon my shoulder
		    D
Lay your hand within my hand
		     Em
I give you all that I am


CHORUS:
    G		       Em
And I breathe where you breathe
    G		      Em
Let me stand where you stand
	       Em
With all that I am


Em
I am the white dove for a soldier

Ever marching as to war

I would give my life to save you
			D
I stand guarding at your door
		     Em
I give you all that I am

Em
I am the one winged bird for flying

Sinking quickly to the ground

I am the blind man for a watchdog
		  D
I am prime for giving in
			Em
I'll show you all that I am


REPEAT CHORUS


D Em D Em C Em D Em


REPEAT CHORUS

End on Em
Comments