Roadtrip To Reality - All Chords & Tabs

 

All Chords & Tabs

Roadtrip To Reality Chords & Tabs

Version: 1 Type: Bass Tab 0 ratings
1 star 2 stars 3 stars 4 stars 5 stars
comments

All Bass Tab

Bass Tab

Song Title: All
Band: Roadtrip To Reality
Tabulator: Alex Silva

Intro:

G:----------------------0-0--0-0------------
D:--2-2--2-2--0-0--0-0------------0-0--0-0--
A:------------------------------------------
E:------------------------------------------

Verse 1:

G:----------------------0-0--0-0------------
D:--2-2--2-2--0-0--0-0------------0-0--0-0--
A:------------------------------------------
E:------------------------------------------

Chorus:
[ Tab from: http://www.guitartabs.cc/tabs/r/roadtrip_to_reality/all_btab.html ]
G:----------------------0-0-0-0-0------------
D:--2-2-2-2-2-0-0-0-0-0-----------0-0-0-0-0--
A:-------------------------------------------
E:-------------------------------------------

Verse 2:

G:----------------------------------0-0-0-0-0-0-0-----------------
D:--2-2-2-2-2-2-2-2-0-0-0-0-0-0-0-0---------------0-0-0-0-0-0-0-0-
A:----------------------------------------------------------------
E:----------------------------------------------------------------

Order:
Intro
Verse 1 x4
Chorus x4
Intro x2
Verse 2 x4
Chorus x4
Intro x4
Chorus x4

This is a dope band.  Their band website is 
http://www.geocities.com/roadtriptoreality and their bassist adam kicks 
ass!
Comments