Rivers Johnny - Secret Agent Man Chords & Tabs

 

Secret Agent Man Chords & Tabs

Rivers Johnny Chords & Tabs

Version: 1 Type: Tab 0 ratings
1 star 2 stars 3 stars 4 stars 5 stars
comments

Secret Agent Man Tab

#-----------------------------------------------------------------------------#
#-- File created with Instab - http://www.pconline.com/~smcarey/instab.html --#
#-----------------------------------------------------------------------------#

Author/Artist: Jonny Rivers
Title: Secret Agent Man
Transcribed by: Aaron Stark
---0---0---0---0---0---0------------------------------------------------------
------------------------------------------------------------------------------
-4---5---5---6---5---5--------------------------------------------------------
------------------------------------------------------------------------------
------------------------------------------------------------------------------
------------------------------------------------------------------------------
 Intro: repeat 3 times                                                        

------------------------------------------------------------------------------
----------12------------------------------------------------------------------
-------12----14-12-12----12-------------12-14-14b-12-------------------12-141-
-14-14----------------14----14p12h14-14--------------14-12-14-12-14-14--------
------------------------------------------------------------------------------
------------------------------------------------------------------------------
                                                                              

-------------------------------------------------12-12-12-15b-12--------------
-------------15----15-------15-----------------------------------15b-12-------
-14/16-16-16----16----16-16----16\14-12-14-12-14------------------------14b---
------------------------------------------------------------------------------
------------------------------------------------------------------------------
------------------------------------------------------------------------------
                                                                              

------------------------------------------------------------------------------
-------------------------------------------------------------------12---------
-12-14-12----------12-14-14-12-14-12-------12----12----12-------12----14-12---
----------14-12-14-------------------14-14----14----14----14-14---------------
------------------------------------------------------------------------------
------------------------------------------------------------------------------
                                                                              
[ Tab from: http://www.guitartabs.cc/tabs/r/rivers_johnny/secret_agent_man_tab.html ]
------------------------------------------------------------------------------
------------------------------------------------------------------------------
-12----12----12----14b-12-----------------------------------------------------
----14----14----14--------14--------------------------------------------------
------------------------------------------------------------------------------
------------------------------------------------------------------------------
 Solo                                                                         

----------12-|---------------------|-----------|----------------|-------------
-16-15-15----|--------12-----------|-----------|----------------|-------------
-------------|-14-14b----14b-14----|-----------|----------------|-------------
-------------|------------------14-|-14b-14-12-|-14-x-14b-14-12-|-14b-12------
-------------|---------------------|-----------|----------------|-------------
-------------|---------------------|-----------|----------------|-------------
 Verse 1 Fills                                                                

----12-14b-14b-14-12----|--------------|-----------------|--------------------
-14------------------14-|-----12-------|-----------------|--------------------
------------------------|-14b----14-12-|----12-14-14b-12-|--------------------
------------------------|--------------|-14--------------|-14b-14-12----------
------------------------|--------------|-----------------|-----------14-------
------------------------|--------------|-----------------|--------------------
 Verse 2 Fills                                                                

--------------------------|--------------|--------------|---------------------
-15b-12-15-12-------------|--------------|--------------|---------------------
--------------14-12-------|-12b-14-12----|--------------|---------------------
--------------------14-12-|-----------14-|-12-14-12-14b-|-14bp12--------------
--------------------------|--------------|--------------|--------14-----------
--------------------------|--------------|--------------|---------------------
 Verse 3 Fills                                                                

------------------0----0----0----2----0----0----0----2----0-------------------
------------------0----1----0----3----0----1----0----3----0-------------------
------------------0----2----0----2----0----2----0----2----0-------------------
------------------2----2----2----4----2----2----2----4----2-------------------
------------------2----0----2----2----2----0----2----2----2-------------------
------------------0----x----0----0----0----x----0----0----0-------------------
 Chords: Verse--> Em - Am - Em - B7 - Em - Am - Em - B7 - Em                  

--------------------2----0----2----0----0---2----0----------------------------
--------------------3----0----3----0----1---3----0----------------------------
--------------------2----0----2----0----0---2----0----------------------------
--------------------4----2----4----2----2---4----2----------------------------
--------------------2----2----2----2----3---2----2----------------------------
--------------------0----0----0----0----0---0----0----------------------------
 Chords: Chourus--> B7 - Em - B7 - Em - C - B7 - Em                           

Comments