Rivermaya - You'll Be Safe Here Chords & Tabs

 

You'll Be Safe Here Chords & Tabs

Rivermaya Chords & Tabs

Version: 1 Type: Tab 0 ratings
1 star 2 stars 3 stars 4 stars 5 stars
comments

You'll Be Safe Here Tab

   
I'm antero, juz want to send a tab entitled You'll be Safe Here by Rivermaya. Pkirate n
lng po ung tab ko..email me for comments antero_alucard@yahoo.com

Standard Tuning: eBGDAE

Intro:

       B			 F#			    C#m

e|------------0-----0-------0--------0------0--------0----------0-------0--------0--------------|
B|---------------4------4----------------4------4-------------------4-------4-------------------|
G|-------------4---4--4---4------------4---4--4---4---------------4---4---4---4-----------------|
D|----------------------------------------------------------------------------------------------|
A|-----2----------------------------------------------------4-----------------------------------|
E|-------------------------------2--------------------------------------------------------------|

	G#m	     F# 	   E(let it ring)
e|------------0---------0----------0-------------------|
B|---------------4----------4------0-------------------|
G|-------------4----------4--------1-------------------|
D|---------------------------------2-------------------|
A|---------------------------------2-------------------|
E|------4------------2-------------0-------------------|


Stanza:

       Nobody knows just why were here....
       C#m		          G#m	      F#

e|-----0----0----0----------------0----0------0---0--0---------------|
B|-----5----5----5----------------0----0------0---0--0---------------|
G|-----6----6----6----------------0----0------3---0--0---------------|
D|-----6----6----6----------------6-----------4----------------------|
A|-----4----4----4----------------6-----------4----------------------|
E|--------------------------------4-----------2----------------------|

	At the right place...		      Two roads intertwine....
	C#m			  G#m	      F#      		  E

e|-----0----0----0----------------0----0------0---0--0------------0-----------|
B|-----5----5----5----------------0----0------0---0--0------------0-----------|
G|-----6----6----6----------------0----0------3---0--0------------1-----------|
D|-----6----6----6----------------6-----------4-------------------2-----------|
A|-----4----4----4----------------6-----------4-------------------2-----------|
E|--------------------------------4-----------2-------------------0-----------|

	so too shall i be....
			E

e|-----------------7-7-7-7-7-7-7-7-|
B|-----------------9-9-9-9-9-9-9-9-|
G|-9-9-9-9-9-9-9-9-9-9-9-9-9-9-9-9-|
D|-9-9-9-9-9-9-9-9-----------------|
A|-7-7-7-7-7-7-7-7-----------------|
E|---------------------------------|

Chorus:


guitar 1:

	Close your eyes....  ....tears		..world's insinscere
	B			 F#		  C#m		  G#m

e|------0-----0-----0------------0----0----0------0---0---0-------0-------|
B|------0-----0-----0------------0----0----0------5---5---5-------0-------|
G|------4-----4-----4------------3----3----3------6---6---6-------0-------|
D|------4-----4-----4------------4----4----4------6---6---6-------6-------|
A|------2-----2-----2------------4----4----4------4---4---4-------6-------|
E|-------------------------------2----2----2----------------------4-------|

     ...You'll be safe here...			You'll be safe here...
	       F#	  B					   E

e|-------------0----0-----0----------------------------------------0-------|
B|-------------0----0-----0----------------------------------------0-------|
G|-------------3----3-----4----------------------------------------1-------| repeat
D|-------------4----4-----4----------------------------------------2-------|
A|-------------4----4-----2----------------------------------------2-------|
E|-------------2----2----------------------------------------------0-------|

guitar 2:


e|-------------------------------------------------|
B|-------------------------------------------------|
G|--------9---8---9---8---9----9---8---9---8-------|
D|----------9---9---9---9--------9---9---9---9-----|
A|-------------------------------------------------|
E|-------------------------------------------------|

Chorus 2:

Guitar 1:

	Save your eyes....  ....tears		..everythihg's unclear		you'll be safe
	B			 F#		  C#m		  G#m		      F#
[ Tab from: http://www.guitartabs.cc/tabs/r/rivermaya/youll_be_safe_here_tab.html ]
e|-------------------------------------------------------------------------------------------------|
B|------------------------------------------------5---5---5-------0--------------------------------|
G|------4-----4-----4------------3----3----3------6---6---6-------0--------------------3--3--3--3--|
D|------4-----4-----4------------4----4----4------6---6---6-------6--------------------4--4--4--4--|
A|------2-----2-----2------------4----4----4------4---4---4-------6--------------------4--4--4--4--|
E|-------------------------------2----2----2----------------------4--------------------2--2--2--2--|

Instrumental

    here..
	B		    F#		    F#-G#m-A		G#	  G       F#
e|-------------------------------------------------------------------------------------------|
B|-------------------------------------------------------------------------------------------|
G|------4-4-4-4-4-4-4-4-4---3-3-3-3-3-3-3-3--3-4-6-6-6-6-6-6-6---5-5-5-5--4-4-4-4--3-3-3-3---|
D|------4-4-4-4-4-4-4-4-4---4-4-4-4-4-4-4-4--4/6-7-7-7-7-7-7-7---6-6-6-6--5-5-5-5--4-4-4-4---|
A|------2-2-2-2-2-2-2-2-2---4-4-4-4-4-4-4-4--4/6-7-7-7-7-7-7-7---6-6-6-6--5-5-5-5--4-4-4-4---|
E|--------------------------2-2-2-2-2-2-2-2--2/4-5-5-5-5-5-5-5---4-4-4-4--3-3-3-3--2-2-2-2---|

Chorus 3 - 5

	here...			     ...doubts and fear wounded heart...

	B		F#		 A		G#m	F#
e|------------------------------------------------------------------------------|
B|------------------------------------------------------------------------------|
G|------4--4--4--4-------3--3--3--3------2--2--2--2-----0-------3--3--3--3------|
D|------4--4--4--4-------4--4--4--4------2--2--2--2-----6-------4--4--4--4------|
A|------2--2--2--2-------4--4--4--4------0--0--0--0-----6-------4--4--4--4------|
E|-----------------------2--2--2--2---------------------4-------2--2--2--2------|

Guitar 2:

	When the lights disappers...


e|----------11---12----11----12----11--12----11----12----11--12----11----12----11----|
B|-------12---12----12----12----12--------12----12----12--------12----12----12-------|
G|-----------------------------------------------------------------------------------|
D|-----------------------------------------------------------------------------------|
A|-----------------------------------------------------------------------------------|
E|-----------------------------------------------------------------------------------|


Outro:
   	      Put your heart in my hands...  You'll be safe here....
	B	       A	     E		    Em

e|-------------------------------------------------------------------0------------------------|
B|-----------------------------------0--0--0--------0--0-----------4---4----------------------|
G|------4--4--4--4-----2--2--2--2----1--1--1--------0--0---------4-------4--------------------|
D|------4--4--4--4-----2--2--2--2----2--2--2--------2--2-------4-----------4  //let ring...---|
A|------2--2--2--2-----0--0--0--0----2--2--2--------2--2-----2--------------------------------|
E|-----------------------------------0--0--0--------0--0--------------------------------------|

Stanza 1:

Nobody knows
Just why we're here
Could it be fate
Or random circumstance
At the right place
At the right time
Two roads intertwine


Stanza 2:

And if the universe
conspired
To meld our lives
To make us fuel and fire
Then know Where ever
you will be
So too shall I be


Chorus 1:

Close your eyes
Dry your tears
'Coz when nothing seems clear
You'll be safe here
From the sheer weight
Of your doubts and fears
Weary heart
You'll be safe here


Stanza 3:

Remember how we laughed
Until we cried
At the most stupid things
Like we were so high
But love was all
that we were on
We belong


Stanza 4:

And though the world would
Never understand
This unlikely union
And why it still stands
Someday we will
be set free.
Pray and believe


Chorus 2:

When the light disappears
And when this world's insincere
You'll be safe here
When nobody hears you scream
I'll scream with you
You'll be safe here


Instrumental


Chorus 3:

Save your eyes
From your tears
When everything's unclear
You'll be safe here
From the sheer weight
Of your doubts and fears
Wounded heart


Chorus 4:

When the light
disappears
And when this world's insincere
You'll be safe here
When nobody
hears you scream
I'll scream with you
You'll be safe here


Chorus 5:

In my arms
Through the long cold night
Sleep tight
You'll be safe here
When no one
understands
I'll believe
You'll be safe,
You'll be safe
You'll be safe here
Put your heart in my hands
You'll be safe here
Comments