Rivermaya - Wag Na Init Ulo Baby Chords & Tabs

 

Wag Na Init Ulo Baby Chords & Tabs

Rivermaya Chords & Tabs

Version: 4 Type: Tab 0 ratings
1 star 2 stars 3 stars 4 stars 5 stars
comments

Wag Na Init Ulo Baby Tab

Rivermaya
Wag na init ulo
Sinulit ni: Coby Sabinorio

Intro: (Bass)

e-----------------------------------
B-----------------------------------
G-----------------------------------
D-----------------------------------
A--10--7--9-10-12-10-9--------------
E-8---8--8------------10-8----------

Intro,Verse,Chorus

e------------------------------------------------------------
B---13-13-13-13--10-10-10-10--12-12-12-12--15-15--13-13------
G---12-12-12-12---9--9--9--9--12-12-12-12--14-14--12-12------
D------------------------------------------------------------
A------------------------------------------------------------
E------------------------------------------------------------
[ Tab from: http://www.guitartabs.cc/tabs/r/rivermaya/wag_na_init_ulo_baby_tab_ver_4.html ]
1st Verse (Bass)

D---------------------------------           Pag chorus ganyan pa rin pero 
A------0-7-7-0-2-2-0-3-3-4-3-0----        mabilis na. 
E--3-3----------------------------

2nd verse

D-------------------------------------------
A-10---0-7--------10-0-7--9-10-12-10-9------      pagkatapos nito, 1st verse
e---------7-7-8------------------------10-8-    bass naman ulit.

*timingan nyo na lang kung gano kahaba ang bawat note*

Ung refrain, chords lang.pluck nyo na lang. C-G-Am-D
Kung may mali, Nasa inyo na kung babaguhin nyo. Pero yan ang gngawa namin.
Ung BAss(intro) gawa ni Adam at Pinadali ni Jhonjon.
PAsensya di ako marunong gumawa ng tab.

Mabuhay ang TROPANG B!!!!!
Mengay pa rin!
Comments