Rivermaya - Ulan Chords & Tabs

 

Ulan Chords & Tabs

Rivermaya Chords & Tabs

Version: 3 Type: Tab 0 ratings
1 star 2 stars 3 stars 4 stars 5 stars
comments

Ulan Tab

   
****************************************************
ULAN- Rivermaya
Tabbed by: A.C!
Guitar Tabs
****************************************************

INTRO: 2x (plucking)
e|----------------------------0-2-3--------------|
B|--------------3-----------3--------------------|
G|------------0-----3x----2----------------------|
D|------0---2-----------0------------------------|
A|----2---3--------------------------------------|
E|--3--------------------------------------------|
 
2x (struming) G-C-G-C-G-C-Dsus-D-D9
e|--3-----3----------------0------2--3-----------|
B|--3-----3----------------3------3--3-----------|
G|--0--2x-0--4x---both 3x--2--2x--2--2-----------|
D|--0-----2----------------0------0--0-----------|
A|--2-----3----------------0------0--0-----------|
E|--3-----x----------------0------0--0-----------|

VERSE: same as intro
Hiwaga ng panahon... (plucking)
Daan-daan... (struming)
 
PRE-CHORUS: Am-Em-Am-Em
Tatawa ng lamang...  
e|--0----------------0---------------------------|
B|--1**sundan mo ung-0**-------------------------|
G|--2--beat ng song--0----both 2x----------------|
D|--2--for this part-2---------------------------|
A|--0----------------2---------------------------|
E|--0----------------0---------------------------|
[ Tab from: http://www.guitartabs.cc/tabs/r/rivermaya/ulan_tab_ver_3.html ]
Ang aking damdamin... C-Dsus-D-D9
e|--0----0----2--3-------------------------------|
B|--1**--3**--3--3-------------------------------|
G|--0----2----2--2-------------------------------|
D|--2----0----0--0-------------------------------|
A|--3----0----0--0-------------------------------|
E|--0----0----0--0-------------------------------|
 
CHORUS: use the intro (strumming)
..ulan...
(gamitin mo ung chords ng intro for the "ulan... 
sinong di..." part) 

(both plucking and struming same number ha!!)

VERSE 2: same parin... 

PRE-CHORUS:same

CHORUS: same

ADLIB: 
e|---------------------------------------------------|
B|---------------------------------------------------|
G|--------7-----------4-----5-----------------7------|
D|--5-----7-8x--2-----4-8x--5-8x--5-----7-----7-8x---|
A|--5-8x--5-----2-8x--2-----3-----5-8x--7-8x--5------|
E|--3-----------0-----------------3-----5------------|

e|---------------------------------------------------|
B|---------------------------------------------------|
G|--------7-----------4-----5-----------------7------|
D|--5-----7-4x--2-----4-4x--5-8x--5-----7-----7-5x---|
A|--5-8x--5-----2-8x--2-----3-----5-8x--7-8x--5------|
E|--3-----------0-----------------3-----5------------|

PRE-CHORUS: Gamtin mo uli yung chords!

CHORUS: d' same (Pero mixture na nang lead at rhythm)
NOTE: DEPENDE NA KUNG GUSTO MO PLUCK O STRUM!!

OUTRO: 4x A-D-A-D-A-D-E
(eto ung tumaas ung tono pagkatapos nung ".....OH!!...")
e|--0-----2---------------0--------------------------|
B|--3-----3---------------0--------------------------|
G|--3-2x--2-4x---both 3x--1-4x-----------------------|
D|--3-----0---------------2--------------------------|
A|--0-----0---------------2--------------------------|
E|--0-----0---------------0--------------------------|

		       THE END

help?? want tabs for any rock opm????
acba08@hotmail.com

dedicated to monique monasterio!!! bandm8s!!! family!!! sk8rs ng Vista verde!!!!!!!
Comments