Rivermaya - Nerbyoso Chords & Tabs

 

Nerbyoso Chords & Tabs

Rivermaya Chords & Tabs

Version: 1 Type: Tab

Nerbyoso Tab

   
Artist: Rivermaya
Title: Nerbyoso
Tabbed By: Ryan Francisco Ng IPSR
Date: January 1 2006(Happy New Year Mga Tsong!)

Para To Sa Kanya! Tska Opm Rulez!!

Tuning: Standard

Palm Mute - *

Intro:

  D   A   B   A   G
e|-----------------|
B|-----------------|
G|7----------------|
D|7---7---9---7---5|  2x 
A|5---7---9---7---5|
E|----5---7---5---3|

Stanza:
  
  D   G
e|--------|
B|--------|
G|--------|
D|7---5---|  4x
A|5---5---|
E|----3---|             
  isang gabing kasama ka...
[ Tab from: http://www.guitartabs.cc/tabs/r/rivermaya/nerbyoso_tab.html ]
  F#m Em F#m  G   A
e|--------------------|
B|--------------------|
G|--------------------|
D|4---2---4---5---7---|
A|4---2---4---5---7---|
E|2-------2---3---5---|
  pm*********
 ilang gabi na akong nagdaramdam...

Chorus:
  D   A   B   A
e|-----------------|
B|-----------------|
G|7----------------|
D|7---7---9---7----|  2x
A|5---7---9---7----|
E|----5---7---5----|
 sasabihin ko na sana...
  
  F#m Em F#m  A   G   
e|-----------------|
B|-----------------|
G|-----------------|
D|4---2---4---7---5| tapos yung next stanza 2x na yung A at G
A|4---2---4---7---5|
E|2-------2---5---3|
 alipin ng kaba...


  D   A   B   A   G
e|-----------------|
B|-----------------|
G|7----------------|
D|7---7---9---7---5|  2x 
A|5---7---9---7---5|
E|----5---7---5---3|

Do Stanza Chords 2x


Any Comments? Paki Mura Na Lang Tong E-ad Na To cryan2@hotmail.com