Rivermaya - Liwanag Sa Dilim Chords & Tabs

 

Liwanag Sa Dilim Chords & Tabs

Rivermaya Chords & Tabs

Version: 4 Type: Tab 0 ratings
1 star 2 stars 3 stars 4 stars 5 stars
comments

Liwanag Sa Dilim Tab

   
Liwanag Sa Dilim - Rivermaya
http://www.ultimate-guitar.com

 
Song: Liwanag Sa Dilim
Artist: Rivermaya
Album: Single Release 2004
Transcribed By: Butoy Only Lofranco
http://groups.yahoo.com/groups/valetparking

From: ralfcute@yahoo.com (Butoy Only Lofranco)
[Free Song Download at http://rivermaya.net]

	Maraming salamat sa mga sumusuporta sa OPM lalong-lalo na sa mga bandang
pilipino..ASTIG ka! Ang kantang ito ay hindi lamang nangangahulugang paghikayat sa
mga kabataan na umiwas sa pinagbabawal na drogang LSD (Liwanag Sa Dilim) Ito'y simbolo
nang pagkakaisa at pag-asang maibalik muli ang himig na matagal nang nawala.
(Naintindihan mo ba? Anlabo ata?) Yun lang ang aking pagkakaintindi sa pagkakasulat
nang kanta..Kung meron kayong ibang interpretasyon eh huwag kayong mahiyang sumali
sa mailing list nang aming banda na matatagpuan sa ibaba nang artikulong ito..salamalaykum! 
 
^   = bend 
\   = slide
~   = vibrato
~~  = heavy vibrato
T   = tap
PM  = palm mute


First Part (For Intro Do It 2x)
e ------66----------6----------------|
B ------66----------6----------------|
G -----------------------------------|
D ---3-----3-3-5\6----5\3------------| 2x
A ----------------------6~-----------|
E -----------------------------------|

Second Part ( Eb D A# - Eb D G# - Eb D A# - F G G# )
e ----------------------------------------------|
B ----------------------------------------------|
G --8\7-----8\7-----8\7-------------------------|
D --8\7--8--8\7--6--8\7--8--3--5--6-------------|
A --6\5--8--6\5--6--6\5--8--3--5--6-------------|
E -------6-------4-------6--1--3--4-------------|
		
For Intro - Do Second Part 2x but instead of using F G G# for ending use 
 							   e -----------|
 							   B -----------|
							   G -----------|
  							   D --5-5-5--6~|
   							   A --5-5-5--6~|
  							   E --3-3-3--4~|

Third Part ( G F G F )
e ----------------------------------|
B ------8------6-----8------6-------|
G ----7------5------7------5--------|
D ---5------3------5------3---------|
A --5------3------5------3----------|
E ----------------------------------|

Fourth Part ( A# C G# Eb G G# )
e -------------------------------------------------|
B -------------------------------------------------|
G --------------------------8-8-8------------------|
D --8-8-8--10-10-10--6-6-6--8-8-8--5-5-5--6-6-6----|
A --8-8-8--10-10-10--6-6-6--6-6-6--5-5-5--6-6-6----|
E --6-6-6--8--8--8---4-4-4---------3-3-3--4-4-4----|

Intro - 1st part 2x then 2nd part 2x

VERSE I
                                 
 1st part  Ituring ang iyong sariling, tagahawi ng ulap
            Sa kalangitang kulimlim
            Kampanang yayanig sa bawat nilalang
            Magigising ang lupang kulang sa dilig

REFRAIN I
     
 3rd part  Ikaw ang magsasabing (kaya mo to!)
            Tulad nang isang tanglaw sa gitna ng bagyo

 2nd part  Isigaw mo sa hangin
            tumindig at magsilbing liwanag (liwanag sa dilim)
            Harapin mong magiting
            Ang bagong awitin ikaw ang (liwanag sa dilim)

VERSE II

1st part   At sa paghamon mo
            sa agos ng ating kasaysayan
            Uukit ka ng bagong daan..oh uh-oh

REFRAIN II
[ Tab from: http://www.guitartabs.cc/tabs/r/rivermaya/liwanag_sa_dilim_tab_ver_4.html ]
 3rd part  Sabay ng iyong sigaw (kaya mo to!)
            Isang panalangin sa gitna ng gulo

 2nd part  Isigaw mo sa hangin
            tumindig at magsilbing liwanag (liwanag sa dilim)
            Harapin mong magiting
            Ang bagong awitin ikaw ang liwanag..

SOLO (do 2nd part then 1st part)

 4th part  Isigaw mo sa hangin
   (PM)     tumindig at magsilbing liwanag (liwanag sa dilim)
            Harapin mong magiting
            Ang bagong awitin.. LIWANAG!

 4th part  Isigaw mo sa hangin
            tumindig at magsilbing liwanag (liwanag sa dilim)
            Harapin mong magiting
            Ang bagong awitin.. 
            Liwanag Sa Dilim..Liwanag Sa Dilim

END PART (2nd part 2x and end with Eb D A#) 


SOLO PART

|-11p10----13p10----11p10----13p10----15p10----|
|-------11-------11-------11-------11-------11-|
|----------------------------------------------|
|----------------------------------------------|
|----------------------------------------------|
|----------------------------------------------|

|---------10-11p10----13p10----11p10----13-10----|
|------10----------11-------11-------11-------11-|
|-9h11-------------------------------------------|
|------------------------------------------------|
|------------------------------------------------|
|------------------------------------------------|

|---------------------|----------------||
|-6/8-----------------|-8^6~8^6~8^6~-||
|-----5/7-------------|----------------||
|---------3/5---------|----------------||
|-------------3/5-----|----------------||
|-----------------6~--|----------------||

|-11p10----13p10----11p10----13p10----15p10----|
|-------11-------11-------11-------11-------11-|
|----------------------------------------------|
|----------------------------------------------|
|----------------------------------------------|
|----------------------------------------------|

|---------10-11p10----13p10----11p10----13-10----|
|------10----------11-------11-------11-------11-|
|-9h11-------------------------------------------|
|------------------------------------------------|
|------------------------------------------------|
|------------------------------------------------|

		* not quite sure about this part.. I think mike uses different
variations of tapping but this version of mine sounds alike from the original record

       T      T      T      T      T      T
|-------------------------------------------|
|-------------------------------------------|
|-5h9-12-5h9-12-5h9-12-5h9-12-5h9-12-5h9-12-|
|-------------------------------------------|
|-------------------------------------------|
|-------------------------------------------|

       T      T      T      T      T
|-------------------------------------------|
|-5h9-13-5h9-13-5h9-13-5h9-13-5h9-13-5h9-13-|
|-------------------------------------------|
|-------------------------------------------|
|-------------------------------------------|
|-------------------------------------------|

|---------------------------------------------|------||
|----------------16h18p16h18-16--15b16r15-----|------||
|-15h17p15h17p15--------------------------15~-|------||
|---------------------------------------------|-15~~-||
|---------------------------------------------|------||
|---------------------------------------------|------||

	*for more detailed copy just listen to the song by downloading it at
http://rivermaya.net or mail me at ralfcute@yahoo.com or visit our mailing list
at http://groups.yahoo.com/groups/valetparking thanks!
Comments