Rivermaya - Liwanag Sa Dilim Chords & Tabs

 

Liwanag Sa Dilim Chords & Tabs

Rivermaya Chords & Tabs

Version: 3 Type: Tab 0 ratings
1 star 2 stars 3 stars 4 stars 5 stars
comments

Liwanag Sa Dilim Tab

   
Band: Rivermaya
Song: Liwanag sa Dilim
Tabbed by: Renz
Tuning : Standard for all
Instrument used : 2 Guitars.Isang Acoustic na may capo sa 3rd fret tsaka isang Electric

Legend
/=Slide Up
\=Slide Down
~=Let Ring/Vibrato
*=Palm Mute Specific
h=Hammer on
p=Pull Off
^=Bend
r=Release
T=Tap
P.M. = Palm Mute Whole Bar

/*Relative to Capo lahat ng Acoustic Parts*/

Intro

Acoustic

e|----3-3-------3-3---------3-3--|
B|----3-3-------3-3---------3-3--|
G|----0-0-------2-2---------2-2--|
D|--0-----0-2-3-----2-0---0------|X3
A|----------------------3--------|
E|-------------------------------|

e|----3-3-----3-3-3-3--|
B|----3-3-----3-3-3-3--|
G|----0-0-----2-2-2-2--|
D|--0-----0-2----------|
A|---------------------|
E|---------------------|

Electric - None

Bass 

G|-------------------------------------|
D|----3-5-6~-5-3------3-3-5-6-6-6-6-6--|
A|----------------6--------------------|
E|--6---------------6------------------|

Preverse

Acoustic

G - F X 3
Em    X 4
F 

Electric

e|---------------------------|
B|---------------------------|
G|--8-7---8-7---8-7----------|
D|--8-8-8-8-8-6-8-8-8-3-5/6--|
A|--6-6-8-6-6-6-6-6-8-3-5/6--|
E|------6-----4-----6-1-3/4--|

e|-------------------------|
B|-------------------------|
G|--8-7---8-7--------------|
D|--8-8-8-8-8-6-5-5-5-5-6--|
A|--6-6-8-6-6-6-5-5-5-5-6--|
E|------6-----4-3-3-3-3-4--|

Bass

G|------------------------------|
D|-----------------------3-5-6--|
A|--6-5----6-5----6-5-----------|
E|------6~-----4~-----6~--------|

G|---------------------------------|
D|---------------------------------|
A|--6-5----6-5---------------------|
E|------6~-----4~-4/15-15-15-15-16-|

Verse

Acoustic

G5 - C6 X 4

Electric - None

Bass

G|--3~--------------------------------|
D|-----3-5-6~-5-3---5---3-5-6~-3h5-3--|
A|----------------6-------------------|
E|--------------------6---------------|

G|--3~--------------------------------|
D|-----3-5-6-8-10-8-6---3-5-6~-3h5-3--|
A|------------------------------------|
E|--------------------6---------------|

Prechorus

Acoustic

Em - F
Em
F X 4

Electric

e|---------------------------------|
B|--8-6~--8-6--6-4--8-6~-----------|
G|--8-8~--8-8--8-5--8-8~-----------|
D|------------------------6-6-6-6--|
A|------------------------6-6-6-6--|
E|------------------------4-4-4-4--|

Bass

G|-------------------------------|
D|--5--5-8-6~------5--6-6-6-6-6--|
A|---------------6---------------|
E|-------------8-----------------|

Chorus

Acoustic

G - F X 4

Electric

e|---------------------------|
B|---------------------------|
G|--8-7---8-7---8-7----------|
D|--8-8-8-8-8-6-8-8-8-3-5/6--| X 2
A|--6-6-8-6-6-6-6-6-8-3-5/6--|
E|------6-----4-----6-1-3/4--|

Bass

G|------------------------------|
D|-----------------------3-5-6--|
A|--6-5----6-5----6-5-----------|
E|------6~-----4~-----6~--------|

Preverse (May part yung electric na ganito)

e|----------------|
B|----------------|
G|----------------|
D|----------------|
A|--/8-10-10b11~--|
E|----------------|

Verse 2

Acoustic - None
Electric - None
Bass
G|--------------------------------|
D|--8---8-6-----8-----6-8-8h10-8--|
A|----8-----6-8---5-6-------------|
E|--------------------------------|

G|-----------------------|
D|----5-6-5---8---5-5h6--|
A|--8-------8---8--------|
E|-----------------------|

Preverse

Chorus

Solo

Acoustic

G - F X 3
Em - F

G - F X 2

Electric - Distortion

(Tricky part, Use your Ring and Pinky Finger to pull off)

e|--11p10----13p10----11p10----13p10----15p10--------|
B|--------11-------11-------11-------11-------13p11--|
G|---------------------------------------------------|
D|---------------------------------------------------|
A|---------------------------------------------------|
E|---------------------------------------------------|
[ Tab from: http://www.guitartabs.cc/tabs/r/rivermaya/liwanag_sa_dilim_tab_ver_3.html ]
e|-----------10-11p10----13p10----11p10----13p10----11p10--|
B|--------11----------11-------11-------11-------11--------|
G|--10h12--------------------------------------------------|
D|---------------------------------------------------------|
A|---------------------------------------------------------|
E|---------------------------------------------------------|

e|--------------------------------------------------|
B|--------------------------------------------------|
G|--10/12--7/10-5/7---------------------------------|
D|------------------3/5-----------------------------|
A|----------------------5/8-10p8-8-8-10p8-8-8-10p8--|
E|--------------------------------------------------|

e|--11p10----13p10----11p10----13p10----15p10--------|
B|--------11-------11-------11-------11-------13p11--|
G|---------------------------------------------------|
D|---------------------------------------------------|
A|---------------------------------------------------|
E|---------------------------------------------------|

e|--------------11p10----13p10----11p10----13p10----11p10--|
B|--------11h13-------11-------11-------11-------11--------|
G|--10h12--------------------------------------------------|
D|---------------------------------------------------------|
A|---------------------------------------------------------|
E|---------------------------------------------------------|

(Parang may Pitch Shifter na Pedal dito sa part na to pero not sure though)

         T        T       T       T       T       T       T       T
e|-------------------------------------------------------------------|
B|--6/11-15-6/11-15-6/11-15-6/11-15-6/11-16-6/11-16-6/11-16-6/11-16--|
G|-------------------------------------------------------------------|
D|-------------------------------------------------------------------|
A|-------------------------------------------------------------------|
E|-------------------------------------------------------------------|

e|--------------------------18p15--------------------------------------|
B|--------------------15h18-------15h16p15-18p15----15b16r15b16r15-----|
G|--15h17p15h17p15h17----------------------------17----------------15--|
D|---------------------------------------------------------------------|
A|---------------------------------------------------------------------|
E|---------------------------------------------------------------------|

Bass

G|----------------------------------------------|
D|--8--8--8-8--8-8--8--8--6--6--6-6--6-6--6--6--|
A|----------------------------------------------|
E|----------------------------------------------|

G|---------------------------------------------|
D|--8--8--8-8--8-8-----5-6--6--6-6--6-6--6--6--|
A|-----------------6h8-------------------------|
E|---------------------------------------------|

G|----------------------------------------------|
D|--8--8--8-8--8-8--8--8--6--6--6-6--6-6--6--6--|
A|----------------------------------------------|
E|----------------------------------------------|

G|--------------------------------------------------------------|
D|--------------------------------------------------------------|
A|--------------------------------------------------------------|
E|--3-3-3-3-3-3-3-3-4-4-4-4-4-4-4-4-4-/16-16-16-16-16-16-16-16--|

G|------------------------------|
D|-----------------------3-5-6--|
A|--6-5----6-5----6-5-----------|
E|------6~-----4~-----6~--------|

Prechorus 2

Acoustic - None

Electric (Light Dist. Palm Mute)

Bb5 - C5 - G#5 - Eb5
G5 - G#5 - G5 - G#5

Bass

G|----------------|
D|----------------|
A|--/10-11-10-11--|
E|----------------|

Finalé

Acoustic

Cadd9 - G - Am - F - C
Em - F - Em - F

Electric

Bb5 - C5 - G#5 - Eb5
G5 - G#5 - G5 - G#5

Bass

Same with the Electric Part

Chorus Tas huling bagsak ng Chorus ulit
Comments