Rivermaya - Liwanag Sa Dilim Chords & Tabs

 

Liwanag Sa Dilim Chords & Tabs

Rivermaya Chords & Tabs

Version: 3 Type: Bass Tab 0 ratings
1 star 2 stars 3 stars 4 stars 5 stars
comments

Liwanag Sa Dilim Bass Tab

   
Intro:

G|-------------------------------------|
D|----4-6-7--6-4------4-4-6-7-7-7-7-7--|
A|----------------7--------------------|
E|--7---------------7------------------|

G|-----------------------------------------|
D|-------------------------------4-6-7-7-7-|
A|-7-6-------7-6-------7-6-----------------|
E|-----7-7-7-----5-5-5-----7-7-7-----------|

G|-----------------------------------|
D|-----------------------------------|
A|-7-6-------7-6---------------------|
E|-----7-7-7-----5-/16-16-16-16-17---|

Verse 1: 

G|-4---------------------------------|
D|----4-6-7--6-4-------4-6-7--4h6-4--|
A|---------------7-------------------|
E|-----------------7-----------------|

G|-4---------------------------------|
D|----4-6-7-9-11-9-7---4-6-7--4h6-4--|
A|-----------------------------------|
E|-------------------7---------------|

REFRAIN:

G|----------------------------------|
D|--6--6-9-7-------6--4-4-5-7-7-7-7-|
A|---------------7------------------|
E|-------------9--------------------|

CHORUS:

G|----------------------------------------|
D|-----------------------------4-6-7-7-7--|
A|-7-6-------7-6------7-6-----------------|
E|-----7-7-7----5-5-5----6-6-6------------|

G|----------------------------------------|
D|-----------------------------4-6-7-7-7--|
A|-7-6-------7-6------7-6-----------------|
E|-----7-7-7----5-5-5----6-6-6------------|

Verse 2

G|--------------------------------|
D|--9---9-7-----9-----7-9-9h11-9--|
A|----9-----7-9---6-7-------------|
E|--------------------------------|

G|-----------------------|
D|----6-6/7-6----9-------|
A|--9----------9---9-----|
E|-----------------------|

G|----------------------------------|
D|--6--6-9-7-------6--4-4-5-7-7-7-7-|
A|---------------7------------------|
E|-------------9--------------------|

CHORUS:
[ Tab from: http://www.guitartabs.cc/tabs/r/rivermaya/liwanag_sa_dilim_btab_ver_3.html ]
G|----------------------------------------|
D|-----------------------------4-6-7-7-7--|
A|-7-6-------7-6------7-6-----------------|
E|-----7-7-7----5-5-5----6-6-6------------|

G|----------------------------------------|
D|-----------------------------4-6-7-7-7--|
A|-7-6-------7-6------7-6-----------------|
E|-----7-7-7----5-5-5----6-6-6------------|

ADLIB:

G|--------------------------|
D|--------------------------|
A|--------------------------|
E|-7-7-7-7-7-7-5-5-5-5-5-5--|

G|--------------------------|
D|--------------------------|
A|--------------------------|
E|-7-7-7-7-7-7-5-5-5-5-5-5--|

G|--------------------------|
D|--------------------------|
A|--------------------------|
E|-7-7-7-7-7-7-5-5-5-5-5-5--|

G|--------------------------|
D|--------------------------|
A|--------------------------|
E|-7-7-7-7-7-7-5-5-5-5-5-5--|

G|--------------------------------|
D|--------------------------------|
A|--------------------------------|
E|-5-5-5-5-5-5-5-5-4-4-4-4-4-4-4--|

G|--------------------------------|
D|--------------------------------|
A|--------------------------------|
E|-5-5-5-5-5-5-5-5-4-4-4-4-4-4-4--|

G|--------------------------------|
D|--------------------------------|
A|--------------------------------|
E|-5-5-5-5-5-5-5-5-4-4-4-4-4-4-4--|

G|----------------------------------|
D|----------------------------------|
A|----------------------------------|
E|-5-5-5-5-5-5-5-5-4-4-4-4-4-4-4/7--|

G|--------------------------|
D|----------------------4-6-|
A|-7-6----7-6----7-6--------|
E|-----7------5------6------|

G|----------------------------------------------------|
D|----------------------------------------------------|
A|----------------------------------------------------|
E|-/7-7-7-7-7-7-7-7-5-5-5-5-5-5-5-5-4-4-4-4-4-4-4-4/5-|

(REPEAT CHORUS)

END:

G|---------|
D|---------|
A|-7-6-----|
E|-----7p--|

eto ung B version nmin. mbaba kc ung nakita kong tab, tinaas ko lang nh half fret..mas
mgnda kung pkinggan nyo rin.. 1st tab ko 'to.. paki rate n lang.. tnx..
ug my mali email nyo ko, hotshot_mengt@yahoo.com
Comments