Rivermaya - Kisapmata Complete Chords & Tabs

 

Kisapmata Complete Chords & Tabs

Rivermaya Chords & Tabs

Version: 1 Type: Tab 0 ratings
1 star 2 stars 3 stars 4 stars 5 stars
comments

Kisapmata Complete Tab

   
Song: Kisapmata
Artist: Rivermaya
Compiled by: j0bski
SOLO & Bass Tabbed By: j0bski 11:30am - 1:11pm 06-24-03.

I Love You My Einjhel Tricia! ;)

HERE'S THE COMPLETE TAB OF RIVERMAYA'S KISAPMATA!!! An indeed.. A VERY GREAT SONG!!!
I believe this is played by two guitars, the other plays this, and the other the "chuwariwap" thing,
like the palm mutes and acoustics.. well i hear it. but you can play it without that. ;)

Bass tab at the bottom

anyone needing a guitarist? text me 09172459740 EMAIL ME jobo213@yahoo.com
Mapua IT Center Makati

To achieve a the good rhythm of the song, just pluck the chords while playing the verses.
you'lle figure it out.

STANDARD TUNING: EBGDAE

Chords:
     D     Em    A     G
E---2-----0-----0-----3
B---3-----0-----0-----3
G---2-----0-----2-----0
D---0-----2-----2-----0
A---0-----2-----2-----2
E---------0-----0-----3

Guitar 1 plays chords all throughout the song
Guitar 2 plays the intro

Intro: D-Em-A-G (2x) pause

INTRO: by Mark Julius

Intro:	
                                                                                              D	                                                       Em
E----------------------------5--------- ----------------2--------------------- ---------------------  
B-------------------3------------------ ----------------3--------------------- ---------------------
G------------2------------------------- ----------------2--------------------- ---------------------
D-------------------------------------- -------------------------------------- ---------2-----------  
A-------------------------------------- -------------------------------------- ---------2-----------
E-------------------------------------- -------------------------------------- ---------------------

	A                                                                G
E----------------------- ------------------------ ----------------5-------
B-------3--------3------ ------------------------ -----------3------------
G--2---------2---------- ------2-----0----------- ------2-----------------
D----------------------- ------------------------ ------------------------
A----------------------- ------------------------ ------------------------
E----------------------- ------------------------ ------------------------  

	               D		                                      Em	                                                 A
E----------2------------ ------------------------ --------------------5---
B----------3------------ ------------------------ ----------3----3--------
G----------2------------ -----------2------------ ------2-----------------
D----------------------- -----------2------------ ------------------------
A----------------------- ------------------------ ------------------------
E----------------------- ------------------------ ------------------------

   D          Em      A              G
Nitong umaga lang, pagka lambing-lambing
          D           Em            A    G
Ng iyong mga matang hayup kung tumingin
        D        Em   A            G
Nitong umaga lang, pagka galing-galing
             D           Em        A  G
Ng iyong sumpang walang aawat sa atin.

Chorus:

         D            Em          A          G
O kay bilis namang maglaho ng pag-ibig mo sinta
  D              Em         A  G
Daig mo pa ang isang kisapmata
  D               Em            A             G
Kanina'y nariyan lang o ba't bigla namang nawala
  D              Em         A  G pause
Daig mo pa ang isang kisapmata.

  D          Em      A           G
Kani-kanina lang, pagka ganda-ganda
        D           Em            A  G
Ng pagkasabi mong sana'y tayo na nga
       D        Em   A         G
Kani-kanina lang, pagka saya-saya
          D            Em          A   G
Ng buhay kong bigla na lamang nag-iba.

Repeat Chorus except last word

          A      G   D  Em   A   G
...kisapmata ha haa, ha haa, ha haa

Lick: (do chord pattern)
[ Tab from: http://www.guitartabs.cc/tabs/r/rivermaya/kisapmata_complete_tab.html ]
   D          Em      A              G
Nitong umaga lang, pagka lambing-lambing
   D          Em      A            G             D
Nitong umaga lang, pagka galing-galing galing-galing
  D          Em      A           G
Kani-kanina lang, pagka ganda-ganda
  D          Em      A         G
Kani-kanina lang, pagka saya-saya

Repeat Chorus

          A      G   D  Em   A   G
...kisapmata ha haa, ha haa, ha haa

========================SOLO========================================

Mix Fuzz (i got a zoom), delay, and put some limiter. i set the limit to 5. 
in case you don't have fuzz, you can use a small amount of overdrive.
that's my recipe! ;)

It does'nt sound the exactly the same, but it sound really good!
You don't always need to have the real one, so i got an improvised one.

Guitar Solo:
Bass: use CHORUS BASS TABS

|--14p12--14p12--------------------------------------------------------|
|----------------------------------------------------------------------|
|----------------14-14-12--12-12-16--11-11--11-9--9-9-7--7h9-7h9-7h9---|
|-------------------------------------------------------^====fast===^--|
|----------------------------------------------------------------------|
|----------------------------------------------------------------------|

|--14p12--14p12----------------------------------------------------------------------------|
|------------------------------------------------------------------------------------------|
|----------------14-14-12--12-12-16--11-11--11-9--9-9-7h9-5h7-4h5p4h5p4h5p4h5p4~let ring~--|
|------------------------------------------------------------------------------------------|
|------------------------------------------------------------------------------------------|
|------------------------------------------------------------------------------------------|

|----------------------------------------|
|----3~~~----5~~~----5/7~~~--7/10--7~~~--|
|--2-------2-------2---------------------|
|----------------------------------------|
|----------------------------------------|
|----------------------------------------|

|------------------12p10-10-9--9-9-2--2-2-3~~~--|
|----3~~~----5~~~-------------------------------|
|--2-------2------------------------------------|
|-----------------------------------------------|
|-----------------------------------------------|
|-----------------------------------------------|

done!

======================================================================================

Here's the ending by ROmmel

ENDING:

Just use "clean guitar" with your high frequency pickup (last one to the right).

Now for the last solos:

|-14-14-14-14-14-14-12-12-12-12-12-12-|
|-------------------------------------|
|-------------------------------------|
|-------------------------------------|      any comments, mail me. . . 
|-------------------------------------|       jrcmanzano@yahoo.com
|-------------------------------------|           9164482742

|-14-14-14-14-14-14-15-15-15-15-15-15-|
|-------------------------------------|
|-------------------------------------|        Filipino TABS 
|-------------------------------------|         are the best!
|-------------------------------------|
|-------------------------------------|

|-14-14-14-14-14-14-12-12-12-12-12-12-|
|-------------------------------------|
|-------------------------------------|
|-------------------------------------|
|-------------------------------------|
|-------------------------------------|

|-12-12--17--12--17-----17-17-17---12-10--|
|-----------------------------------------|
|-----------------------------------------|
|-----------------------------------------|
|-----------------------------------------|
|-----------------------------------------|

NOW FOR THE BASS TAB!! by: j0bski

Intro/Verse: 

INTRO: #1 2X
Verse: #1 4x then #2

#1
|----------------------|
|----------------------|
|----------------------|
|------------7-7--5-5--|
|--5-5--7-7------------|
|----------------------|

#2
|-------------|
|-------------| 
|-------------| THEN CHORUS
|--5-5-5-5-5--|
|-------------|
|-------------|

Chorus:

PLay this at for chorus and solo

Play 3x


|-------------------------------------|
|------------------------7-7-----5-5--|
|--5-5--5-4-5-7-7--5-4-5-----5-5------|
|-------------------------------------|

then play at the last part of the chorus


|---------------------------------------|
|------------------------7-7-7----------|
|--5-5--5-4-5-7-7--5-4-5-------4-4-4-5--|
|---------------------------------------|

OUTRO:

PLAY 4x

|-----------------------------------|
|-----------------------7--------5--|
|--5----4--5--7---4--5-----4--5-----|
|-----------------------------------|

then end on this lick

|---------------------|
|-----------5---------|
|--5-4--5/7-----------|
|-------------5-3~~~--|

THAT's ALL! Rockerz RULE!!!

RekcoR,
jobski
Comments