Rivermaya - Imposible Chords & Tabs

 

Imposible Chords & Tabs

Rivermaya Chords & Tabs

Version: 1 Type: Tab 0 ratings
1 star 2 stars 3 stars 4 stars 5 stars
comments

Imposible Tab

   
This is the solo of rivermaya's imposible acoustic.
From the album: Live and acoustic
Tabber: Arjay Nacion Email:arjay_nacion@yahoo.com

Solo Acoustic:
|--------------------|-8-8p7----------8-8p7------|-------------------|-10-10p8----8-------|
|----8-8--8-8-8-8-8--|------10-10--10------10-10-|----8---8-8-8-8-8--|---------10---10-10-|
|-7h9----9-9-9-9-9-9-|---------------------------|-7h9---9-9-9-9-9-9-|--------------------|
|--------------------|---------------------------|-------------------|--------------------|
|--------------------|---------------------------|-------------------|--------------------|
|--------------------|---------------------------|-------------------|--------------------|

|-----------|-----------------7-8-10-7-7----------7-8-8/10-10-10-10--8--8-|
|-8---8-8---|---8--10p8---8-10-----------10-10--10--------------------10--|
|---9-------|-9--------9--------------------------------------------------|
|-----------|-------------------------------------------------------------|
|-----------|-------------------------------------------------------------|
|-----------|-------------------------------------------------------------|
                                                        	    D  D  U  U  D  U  D U  D  U  D
|-12-15-12--12----12-12--15--12---12-12-12------------------------|12-12-12-12-12-12-12-12-12-12-12-|
|--------------13-------------------------13-13-13----13-13----13-|13-13-13-13-13-13-13-13-13-13-13-|
|--------------------------------------------------14-------14----|14-14-14-14-14-14-14-14-14-14-14-|
|-----------------------------------------------------------------|---------------------------------|
|-----------------------------------------------------------------|---------------------------------|
|-----------------------------------------------------------------|---------------------------------|

|--12-14b-12-14b-12-14b-12-14b-12-14b-12--|-----------------------------|12-12-12-12-12-12-12-12-12-12-|
|13---------------------------------------|13-13------------------------|13-13-13-13-13-13-13-13-13-13-|
|-----------------------------------------|------14p12---12-14-12-12-12-|------------------------------|
|-----------------------------------------|------------14---------------|------------------------------|
|-----------------------------------------|-----------------------------|------------------------------|
|-----------------------------------------|-----------------------------|------------------------------|

|12-15--15/17--17-17-17-|17-15----------------|15-----15---------|----------------------------------|
|-----------------------|-----17p15h17--17-17-|---15b----15b-15b-|14-15b-14-15b-14-15b-14--14-14-14-|
|-----------------------|---------------------|------------------|----------------------------------|
|-----------------------|---------------------|------------------|----------------------------------|
|-----------------------|---------------------|------------------|----------------------------------|
|-----------------------|---------------------|------------------|----------------------------------|
                               Breakdown:
|---------------------------------|----------------------------------------------------|
|----------------13---------------|-----------------------------------10-8-------------|
|14-12------12-14--14-12----------|8/9-8/9-8/9-8/9-8/9-8/9-8/9-8/9--9------9-7-5-7-5-5-|
|-----12-14--------------14-12-10-|----------------------------------------------------|
|---------------------------------|----------------------------------------------------|
|---------------------------------|----------------------------------------------------|
[ Tab from: http://www.guitartabs.cc/tabs/r/rivermaya/imposible_tab.html ]
|-------8-7--------------------------------------|--------------|--------------|
|--8-------10-8-10-------------------------------|--------------|----------6-5-|
|9---9-------------9-7-5-7---5--7b-7b-7b-7br-5-5-|----------5-4-|--4-5-7-5-----|
|--------------------------7---------------------|7p5---5-7-----|7-------------|
|------------------------------------------------|----7---------|--------------|
|------------------------------------------------|--------------|--------------|

|------------5-5-7-8--10-8----8----|
|------5-6-8---------------10---10-|
|--5-7-----------------------------|
|7---------------------------------|
|----------------------------------|
|----------------------------------|

Solo Nylon:

|------------------------------------------------------|---------------------------------------------------------------|
|-15b-15b-15b--15b-15b--15b-15b--15p13--15p13----------|-10/13--12p10h12--12p10h12--12p10h12---------------------------|
|---------------------------------------------14p12h14-|--------------------------------------14-14p12-----------------|
|------------------------------------------------------|-----------------------------------------------12h14--12p10h12-|
|------------------------------------------------------|---------------------------------------------------------------|
|------------------------------------------------------|---------------------------------------------------------------|

|--------------------------------------|---------------|-----------------------------------------------------|
|--------------------------------------|---------------|-------------------------------------------5-5--8-8--|
|--------------------------------------|-------7p5---5-|-7/9--9-9--7\5--7-5-7-5/7--------5-5--7-7--5-5--7-7--|
|-10h12p10-----------------------------|-----7-----7---|--------------------------7p5h7--7-7--9-9------------|
|----------12--------------------------|-5/7-----------|-----------------------------------------------------|
|--------------10h12--8-10--8--10p8--5-|---------------|-----------------------------------------------------|

|-8/10--10-10-10-7-7---8/10--10-10-10-8-10p8-7--8/10--10-10-10-10--10-7--|-7/8--7----7----7----7--8p7----7-----|
|------------------------------------------------------------------------|--------10---10---10--------10---10--|
|------------------------------------------------------------------------|-------------------------------------|
|------------------------------------------------------------------------|-------------------------------------|
|------------------------------------------------------------------------|-------------------------------------|
|------------------------------------------------------------------------|-------------------------------------|

|-----------------------------------|--------------------------------------------------------------------------------------|
|-8/10--10-10-10--8-----------------|----------8---8-8---8-8---8-8---8-8---8-----8-8---8h10-12----10-12br-10-12br-10-12br\-|
|-------------------9\--5--7p5------|---5--5/9---9-----9-----9-----9-----9---9--9----9----------12-------------------------|
|------------------------------7-7--|-7------------------------------------------------------------------------------------|
|-----------------------------------|--------------------------------------------------------------------------------------|
|-----------------------------------|--------------------------------------------------------------------------------------|

|-------------------------|\
|-------------------------| \
|-------------------------|  \ Do this 3x then:  
|-------------------------|  /  
|-------------7p5-5-5--5--| /
|-3/5--5-5--5-------------|/

|-------------------------------------------------------|
|-8b-8b--8-8b--8-8b--8-8b-8b-8--------------------------|
|------------------------------9--7p5-------------------|
|-------------------------------------7p5-4p4-----------|
|---------------------------------------------7p5-------|
|-------------------------------------------------8p7-5-|
Comments