Rivermaya - Himala Chords & Tabs

 

Himala Chords & Tabs

Rivermaya Chords & Tabs

Version: 2 Type: Tab 0 ratings
1 star 2 stars 3 stars 4 stars 5 stars
comments

Himala Tab

   
**********************************************************************************************
song:Himala
Artist:Rivermaya
Tabbed by:shortysphere
standard tuning (EADGBe)
**********************************************************************************************


Adlib:
[ Tab from: http://www.guitartabs.cc/tabs/r/rivermaya/himala_tab_ver_2.html ]
e|--5------------------------------------------------------------------------------
B|---5-------------5-6-5-------------------------------------7/10-6--5-------------
G|----5------4-5-7----------7-5-4---4-5-7----7-5-4-------4-------------7-5-4-5-----
D|-----7---7----------------------7----------------7-5-7-----------------------5/7-
A|------7--------------------------------------------------------------------------
E|---------------------------------------------------------------------------------

e|-7/8-7----7-8/10-8-7-5-3--3-3/5-----------------------8---|
B|-------8------------------------5-5h6---------6-5-5-------|
G|----------------------------------------------------5---5~|
D|----------------------------------------------------------|
A|----------------------------------------------------------|
E|----------------------------------------------------------|


| / slide up
| h Hammer-on
| ~ Let ring


shortysphere@yahoo.com
Comments