Rivermaya - Himala Chords & Tabs

 

Himala Chords & Tabs

Rivermaya Chords & Tabs

Version: 1 Type: Bass Tab 0 ratings
1 star 2 stars 3 stars 4 stars 5 stars
comments

Himala Bass Tab

   
Song: Himala
Artist: Rivermaya
Tabbed by: Regan

Standard Tunning: (E A D G)
| /  slide up
| \  slide down
| x  Mute note

Intro:
|------------------------------------------------------|
|------------------------------------------------------|
|-----4--4--4-------------5--5--5-----------------9----|
|-2------------2------3------------3-----5-------------|

verse:
|------------------------------------------------------|
|------------------------------------------------------|
|-----4--4--4-------------5--5--5-----------------9----|
|-2------------2------3------------3-----5-------------|

|------------------------------------------------------|
|------------------------------------------------------|
|-----4--4--4-------------5--5--5-----------------9----|
|-2------------2------3------------3-----5-------------|

|--------------------------------------------------------------|
|------------------------------------------------------7-------|
|-----4--4--4-------------5--5--5---------------9-----------9--|
|-2------------2------3------------3-----5---------------------|

|------------------------------------|
|------------------------------------|
|-----4--4--4-------------5--5--5----|
|-2------------2------3------------3-|

Chorus:
|----------------------------------------------|
|------------------------5--5-5--5--5-5-5-5--5-|
|-5--5-5--5--5-5-5-5--5------------------------|
|----------------------------------------------|

-------------------------------------|
-4--4-4--4--4-4-4-4--4--5------------|
-------------------------------------|
---------------------------5/7--5--3-|

|----------------------------------------------|
|------------------------5--5-5--5--5-5-5-5--5-|
|-5--5-5--5--5-5-5-5--5------------------------|
|----------------------------------------------|
[ Tab from: http://www.guitartabs.cc/tabs/r/rivermaya/himala_btab.html ]
--------------------------------------------|
-4--4-4--4--4-4-4-4--4--5-------------------|
--------------------------------5-----------|
----------------------------------------5---|

Before solo: (2:31)
-------------------------------|
-------------------------------|
--5-5-5-5-5-5-5-5-5-5-5-5-5-5--|
-------------------------------|

Solo:
|---------------------------------------------------------------|
|----------------------3--3--3--3---3--3--3--3---3--3--3--3-----|
|------------------------3-----3------3-----3------3-----3------|
|-2----/9---7--5--4---------------------------------------------|

|---------------------------------------------------------------|
|----------------------3--3--3--3---3--3--3--3--2-33333333333---|
|------------------------3-----3------3-----3-------------------|
|-0----/7---5--3--2---------------------------------------------|

last chorus: (3:20)
|-----------------------------------------------------|
|---------------------------5-5-5-5-5-5-5-5-5-5-5-5-5-|
|-5-5-5-5-5-5-5-5-5-5-5-5-5---------------------------|
|-----------------------------------------------------|

------------------------------------------------|
-4-4-4-4-4------------5-5-5-5-5-5-5-5-5-5-5-5-5-|
--------------4---------------------------------|
-------------------5----------------------------|

|-----------------------------------------------------|
|---------------------------5-5-5-5-5-5-5-5-5-5-5-5-5-|
|-5-5-5-5-5-5-5-5-5-5-5-5-5---------------------------|
|-----------------------------------------------------|

-----------------------------------------------|
4-4-4-4-4-4-4-4-4-4-4-4-5----------------------|
--------------------------------5--------------|
---------------------------------------5-------|

Ending:
|------------------------------------------------------|
|------------------------------------------------------|
|-----4--4--4-------------5--5--5-----------------9----|
|-2------------2------3------------3-----5-------------|

End!!!
Kung sa tingin niyo may mali kayo na bahala...
sori na lang kung medyo may sabit sa solo kayo na bahala dumiskarte.
For comments & suggestions e-mail me at regan_pl@yahoo.com
pls.rate this tab.
Comments