Rivermaya - Flowers Chords & Tabs

 

Flowers Chords & Tabs

Rivermaya Chords & Tabs

Version: 1 Type: Tab 0 ratings
1 star 2 stars 3 stars 4 stars 5 stars
comments

Flowers Tab

   
intro/verse 1:

e|----------------------------------------------------------|
B|----8---8-----8---7---7-----7---5---5-----5---5---5-----5-|
G|------0-----0-------0-----0-------0-----0-------0-----0---|
D|--5-------5-----5-------5-----5-------5-----5-------5-----|
A|----------------------------------------------------------|
E|----------------------------------------------------------|
[ Tab from: http://www.guitartabs.cc/tabs/r/rivermaya/flowers_tab.html ]
chorus 1:
    G                F               C/G           C
e|------------------------------------------------------3---3------|
B|--------3---3------------1---1-----------5---5----------5---5----|
G|----------4---4------------2---2-----------5---5-----5--------5--|
D|------5---------5------3---------3-----5-----------5-------------|
A|----5----------------3---------------3-----------3---------------|
E|--3----------------1---------------3-----------------------------|

verse 2:

e|-----7---7-----7---5---5-----5---3---3-3h4p3-----3---3-3h4p3-----|
B|-------0-----0-------0-----0-------0---------0-----0---------0---|
G|--4--------4-----4-------4-----4---------------4-----------------|
D|-----------------------------------------------------------------|
A|-----------------------------------------------------------------|
E|-----------------------------------------------------------------|

chorus 1:
repeat intro:

chorus 2:
                 G      F      C
     someday i'll........

repeat intro:

im not really sure about this but it sounds just like in the song...
I love you jenette.....
Comments