Rivermaya - Faithless Chords & Tabs

 

Faithless Chords & Tabs

Rivermaya Chords & Tabs

Version: 1 Type: Tab 0 ratings
1 star 2 stars 3 stars 4 stars 5 stars
comments

Faithless Tab

   
Song: Faithless
Artist: Rivermaya
from the Free Album
Ang nagtab: bonyang26

Standard Tuning

Intro at ung sa unang stanza (pag studio version)
(~ - slide yan ha...)
(h - hammer nmn yan..)
E|-----------------------|
B|-----------------------|
G|-----------------------|
D|----------------7-6-6--|
A|--6~7--7--7------------|
E|---------------7-------|

Ung sa live and acoustic.. chords naman ang gamit..(stanza)
(ung mga notes na nasa D na string pwede ring gawing deadstring nlng..)
E|-----------------------|
B|-----------------------|
G|--9--14~13--13---------|
D|--7--12~11--11---------|
A|--7--12~11--11---------|
E|-----------------------|

Dun sa refrain at ref2:
pili nlng kau... halos preho lng nmn ang tunog
(ung mga notes na nasa D na string pwede ring gawing deadstring nlng..)
a. (mas k2nog nito ung acoustic)
E|-----------------------|
B|-----------------------|
G|----13--14-------------|
D|----11--12--(2x)-------|
A|----11--12-------------|
E|-----------------------|

 
b.
E|-----------------------|
B|-----------------------|
G|-----------------------|
D|--6--7------(2x)-------|
A|--6--7-----------------|
E|--4--5-----------------|

before and during the chorus:
(ung mga notes na nasa D na string pwede ring gawing deadstring nlng..)
E|-----------------------|
B|-----------------------|
G|--9--11--14------------|
D|--7--9--12-------------|
A|--7--9--12-------------|
E|-----------------------|

adlib:

E|--------------------------------------------|
B|--------------------------------------------|
G|-------7---------6---------7--------9-------|
D|--6--7---7--6--7------6--7--7--6--7---------|
A|--------------------------------------------|
E|--------------------------------------------|


E|---------------------------------------------------------|
B|------------------10--10--10--10--9--9--9--9--7----------|
G|--9h11--11--11--11-----------------------------9--11-----|
D|---------------------------------------------------------|
A|---------------------------------------------------------|
E|---------------------------------------------------------|

[ Tab from: http://www.guitartabs.cc/tabs/r/rivermaya/faithless_tab.html ]
E|--9--9--9--9--9--7-------------------------------------|
B|-------------------10--10--10--9--9--9--9--7--7--------|
G|--------------------------------------------9----(2x)--|
D|-------------------------------------------------------|
A|-------------------------------------------------------|
E|-------------------------------------------------------|

E|--------------------------------------------|
B|--5h7--(approx 8 or 9x)---------------------|
G|--------------------------------------------|
D|--------------------------------------------|
A|--------------------------------------------|
E|--------------------------------------------|
(dito sa part na toh^^^^^, mejo dinadamihan na ung sa 7.. kau nlng bahala..)

riff1
(ung mga notes na nasa D na string pwede ring gawing deadstring nlng..)
E|--------------------------|
B|--------------------------|
G|--9~11~13~14~13--6--4--6--|
D|--9~9~~11~12~11--4--2--4--|
A|--7~9~~11~12~11--4--2--4--|
E|--------------------------|

riff2
E|--------------------------------------------|
B|--------------------------------------------|
G|--------------------------------------------|
D|-----7h6------------------------------------|
A|--7h6---------------------------------------|
E|--------------------------------------------|
prang hammer na pabalik prang gnun.. no ba twag dun? bsta klngan maiiwan ung tunog..
paulit-ulit na yan hanggang ending!

FAITHLESS	
(do intro)

stanza1:(intro/stanza chords)
your so-called friends
your so-called career
the time on your hands 
the lover you cheat on every Monday night
your sense of protection
your chord progressions

refrain:(do ref) 
you had the world
 
stanza2:(do stanza chords)
indebted to no one
but your electronic diary
well, that's impressive
you're so complete! (ref)
 
chorus:(do chorus)
until we tumble we are faithless
until our senses fail were faithless
until we falter we are faithless
until there's nothin' left to hold on to

stanza3:(do stanza chords)
the turn of events
the twister called fate
it came without warning
they gave you no freakin' sign
so now you've got zero
now you've got nil

refrain2:(do ref)
how does it feel?

(do chorus chords)  
until we tumble we are faithless
until our senses fail were faithless
until we falter we are faithless
(do adlib)
(do chorus chords once tpos riff1 then chorus ulit)

(do riff2)
"only in darkness
can we plainly see
the hand that saves
and sets us free.

natapos din! sana poh magustuhan nyo tong tab ko.. 2nd ko plng toh..
ung 1st eh ung sa fatal posporos...:D
any comments? >> bonyang26@yahoo.com
hi sa lahat ng taga-CDBS sa Biņan/Sta. Rosa, Laguna!
lalo na sa mga 4th yr! :D
mabuhay ang OPM...
Comments