Rivermaya - Elesi Chords & Tabs

 

Elesi Chords & Tabs

Rivermaya Chords & Tabs

Version: 2 Type: Tab 1 rating
1 star 2 stars 3 stars 4 stars 5 stars
comments

Elesi Tab

   
                                      ELESI
                            As recorded by Rivermaya
                           (From the 1997 Album TRIP)

Words by Bamboo, Rico Blanco

Music by Francisco "Bamboo" MaƱalac, Rico Blanco, Nathan Azarcon & Mark Esqueta
Transcribed by Michael "Rattlesnake" Tee www.geocities.com/michaelbydemand

           G               Em(type 2)                D                   Em
      3 2 0 0 3 3          x 2 2 0 3 3          x x 0 2 3 2          x 2 2 0 0 0

           C                    F                   Am
      0 3 2 0 1 0          1 3 3 2 1 1          x 0 2 2 1 0

   Intro
    Alternative Rock Q=140
    G                                Em(type 2)           D
   4/4
    Gtr III
     |  |  | | | |   |  | |  | | |   |  |  | | | |   |  | |  | | |
     /  /  / / / /   /  / /  / / /   /  /  / / / /   /  / /  / / /

    Gtr I
||--^3--3--3-3-3-3-|-3--3-5--5-5-5-|-3--3--3-3-3-3-|-3--3-2--2-2-2--||
||o-^3--3--3-3-3-3-|-3--3-5--5-5-4-|-3--3--3-3-3-3-|-3--3-3--3-3-3-o||
||--^0--0--0-0-0-0-|-0--0-0--0-0-0-|-0--0--0-0-0-0-|-0--0-2--2-2-2--||
||--^0--0--0-0-0-0-|-0--0-0--0-0-0-|-2--2--2-2-2-2-|-2--2-0--0-0-0--||
||o-^2--2--2-2-2-2-|-2--2-4--4-4-4-|-2--2--2-2-2-2-|-2--2----------o||
||--^3--3--3-3-3-3-|-3--3-5--5-5-5-|---------------|----------------||


    G                                 Em(type 2)            D
    |  |   | | | |   |  | |   | | |   |  |   | | | |   |  | |   | | |
    /  /   / / / /   /  / /   / / /   /  /   / / / /   /  / /   / / /

||--3--3---3-3-3-3-|-3--3-5---5-5-5-|-3--3---3-3-3-3-|-3--3-2---2-2-2---||
||o-3--3---3-3-3-3-|-3--3-5---5-5-4-|-3--3---3-3-3-3-|-3--3-3---3-3-3--o||
||--0--0---0-0-0-0-|-0--0-0---0-0-0-|-0--0---0-0-0-0-|-0--0-2---2-2-2---||
||--0--0---0-0-0-0-|-0--0-0---0-0-0-|-2--2---2-2-2-2-|-2--2-0---0-0-0---||
||o-2--2---2-2-2-2-|-2--2-4---4-4-4-|-2--2---2-2-2-2-|-2--2------------o||
||--3--3---3-3-3-3-|-3--3-5---5-5-5-|----------------|------------------||
|
|   Gtr IV
||-----------------|----------------|----------------|------------------||
||o--------8-8-----|--------8-8-----|--------8-8-----|--------8-8------o||
||-----------------|----------------|----------------|------------------||
||-------5---------|------5---------|------5---------|------5-----------||
||o----------------|----------------|----------------|-----------------o||
||-----------------|----------------|----------------|------------------||


 1st Verse
  G                               Em(type 2)           D
   |  |  |  |||   |   ||  | | |    |  |  |  |||   |   ||  | | |
   /  /  /  ///   /   //  / / /    /  /  /  ///   /   //  / / /

|-^3----(3)----|-(3)---5--5-5-5-|-^3----(3)----|-(3)---2--2-2-2-|
|-^3----(3)----|-(3)---5--5-5-5-|-^3----(3)----|-(3)---3--3-3-3-|
|-^0----(0)----|-(0)---0--0-0-0-|-^0----(0)----|-(0)---2--2-2-2-|
|-^0----(0)----|-(0)---0--0-0-0-|-^2----(2)----|-(2)---0--0-0-0-|
|-^2----(2)----|-(2)---4--4-4-4-|-^2----(2)----|-(2)------------|
|-^3----(3)----|-(3)---5--5-5-5-|--------------|----------------|


  G                               Em(type 2)           D
   |  |  |  |||   |   ||  | | |    |  |  |  |||   |   ||  | | |
   /  /  /  ///   /   //  / / /    /  /  /  ///   /   //  / / /

|-^3----(3)----|-(3)---5--5-5-5-|-^3----(3)----|-(3)---2--2-2-2-|
|-^3----(3)----|-(3)---5--5-5-5-|-^3----(3)----|-(3)---3--3-3-3-|
|-^0----(0)----|-(0)---0--0-0-0-|-^0----(0)----|-(0)---2--2-2-2-|
|-^0----(0)----|-(0)---0--0-0-0-|-^2----(2)----|-(2)---0--0-0-0-|
|-^2----(2)----|-(2)---4--4-4-4-|-^2----(2)----|-(2)------------|
|-^3----(3)----|-(3)---5--5-5-5-|--------------|----------------|


  G                               Em(type 2)           D
   |  |  |  |||   |   ||  | | |    |  |  |  |||   |   ||  | | |
   /  /  /  ///   /   //  / / /    /  /  /  ///   /   //  / / /

|-^3----(3)----|-(3)---5--5-5-5-|-^3----(3)----|-(3)---2--2-2-2-|
|-^3----(3)----|-(3)---5--5-5-5-|-^3----(3)----|-(3)---3--3-3-3-|
|-^0----(0)----|-(0)---0--0-0-0-|-^0----(0)----|-(0)---2--2-2-2-|
|-^0----(0)----|-(0)---0--0-0-0-|-^2----(2)----|-(2)---0--0-0-0-|
|-^2----(2)----|-(2)---4--4-4-4-|-^2----(2)----|-(2)------------|
|-^3----(3)----|-(3)---5--5-5-5-|--------------|----------------|


  G                               Em(type 2)           D
   |  |  |  |||   |   ||  | | |    |  |  |  |||   |   ||  | | |
   /  /  /  ///   /   //  / / /    /  /  /  ///   /   //  / / /

|-^3----(3)----|-(3)---5--5-5-5-|-^3----(3)----|-(3)---2--2-2-2-||
|-^3----(3)----|-(3)---5--5-5-5-|-^3----(3)----|-(3)---3--3-3-3-||
|-^0----(0)----|-(0)---0--0-0-0-|-^0----(0)----|-(0)---2--2-2-2-||
|-^0----(0)----|-(0)---0--0-0-0-|-^2----(2)----|-(2)---0--0-0-0-||
|-^2----(2)----|-(2)---4--4-4-4-|-^2----(2)----|-(2)------------||
|-^3----(3)----|-(3)---5--5-5-5-|--------------|----------------||


 Pre-Chorus
  C           G           Am          G
   |  ||||||   |  ||||||   |  ||||||   |  ||||||
   /  //////   /  //////   /  //////   /  //////

|-^0--------|-^3--------|-^0--------|-^3--------|
|-^1--------|-^3--------|-^1--------|-^3--------|
|-^0--------|-^0--------|-^2--------|-^0--------|
|-^2--------|-^0--------|-^2--------|-^0--------|
|-^3--------|-^2--------|-^0--------|-^2--------|
|-----------|-^3--------|-----------|-^3--------|


  C           Em          D           G
   |  ||||||   |  ||||||   |  ||||||   |  ||||||
   /  //////   /  //////   /  //////   /  //////

|-----------|-^0--------|-^2--------|-^3--------|
|-^1--------|-^0--------|-^3--------|-^3--------|
|-^0--------|-^0--------|-^2--------|-^0--------|
|-^2--------|-^2--------|-^0--------|-^0--------|
|-^3--------|-^2--------|-----------|-^2--------|
|-----------|-----------|-----------|-^3--------|


  C           G           Am          G
   |  ||||||   |  ||||||   |  ||||||   |  ||||||
   /  //////   /  //////   /  //////   /  //////

|-----------|-^3--------|-^0--------|-^3--------|
|-^1--------|-^3--------|-^1--------|-^3--------|
|-^0--------|-^0--------|-^2--------|-^0--------|
|-^2--------|-^0--------|-^2--------|-^0--------|
|-^3--------|-^2--------|-^0--------|-^2--------|
|-----------|-^3--------|-----------|-^3--------|


  C                        F
   |  |||||    |   |||||    |  |||||    |   |||||
   /  /////    /   /////    /  /////    /   /////

|-----------|------------|-^1--------|-(1)--------||
|-^1--------|-(1)--------|-^1--------|-(1)--------||
|-^0--------|-(0)--------|-^2--------|-(2)--------||
|-^2--------|-(2)--------|-^3--------|-(3)--------||
|-^3--------|-(3)--------|-^3--------|-(3)--------||
|-----------|------------|-^1--------|-(1)--------||


 Chorus
  G                               Em(type 2)           D
  |  |  | | | |   |  | |  | | |   |  |  | | | |   |  | |  | | |
  /  /  / / / /   /  / /  / / /   /  /  / / / /   /  / /  / / /

|-3--3--3-3-3-3-|-3--3-5--5-5-5-|-3--3--3-3-3-3-|-3--3-2--2-2-2-|
|-3--3--3-3-3-3-|-3--3-5--5-5-4-|-3--3--3-3-3-3-|-3--3-3--3-3-3-|
|-0--0--0-0-0-0-|-0--0-0--0-0-0-|-0--0--0-0-0-0-|-0--0-2--2-2-2-|
|-0--0--0-0-0-0-|-0--0-0--0-0-0-|-2--2--2-2-2-2-|-2--2-0--0-0-0-|
|-2--2--2-2-2-2-|-2--2-4--4-4-4-|-2--2--2-2-2-2-|-2--2----------|
|-3--3--3-3-3-3-|-3--3-5--5-5-5-|---------------|---------------|


  G                               Em(type 2)           D
  |  |  | | | |   |  | |  | | |   |  |  | | | |   |  | |  | | |
  /  /  / / / /   /  / /  / / /   /  /  / / / /   /  / /  / / /

|-3--3--3-3-3-3-|-3--3-5--5-5-5-|-3--3--3-3-3-3-|-3--3-2--2-2-2-||
|-3--3--3-3-3-3-|-3--3-5--5-5-4-|-3--3--3-3-3-3-|-3--3-3--3-3-3-||
|-0--0--0-0-0-0-|-0--0-0--0-0-0-|-0--0--0-0-0-0-|-0--0-2--2-2-2-||
|-0--0--0-0-0-0-|-0--0-0--0-0-0-|-2--2--2-2-2-2-|-2--2-0--0-0-0-||
|-2--2--2-2-2-2-|-2--2-4--4-4-4-|-2--2--2-2-2-2-|-2--2----------||
|-3--3--3-3-3-3-|-3--3-5--5-5-5-|---------------|---------------||


   2nd/3rd Verse
    G                               Em(type 2)           D
     |  |  |  |||   |   ||  | | |    |  |  |  |||   |   ||  | | |
     /  /  /  ///   /   //  / / /    /  /  /  ///   /   //  / / /

||--^3----(3)----|-(3)---5--5-5-5-|-^3----(3)----|-(3)---2--2-2-2--|
||o-^3----(3)----|-(3)---5--5-5-5-|-^3----(3)----|-(3)---3--3-3-3--|
||--^0----(0)----|-(0)---0--0-0-0-|-^0----(0)----|-(0)---2--2-2-2--|
||--^0----(0)----|-(0)---0--0-0-0-|-^2----(2)----|-(2)---0--0-0-0--|
||o-^2----(2)----|-(2)---4--4-4-4-|-^2----(2)----|-(2)-------------|
||--^3----(3)----|-(3)---5--5-5-5-|--------------|-----------------|


  G                               Em(type 2)         D
   |  |  |  |||   |   ||  | | |   |  |  || | |   |  ||  | | |
   /  /  /  ///   /   //  / / /   /  /  // / /   /  //  / / /

                                  Gtr II
|-^3----(3)----|-(3)---5--5-5-5-|-3--3---3-3-3-|-3---2--2-2-2-|
|-^3----(3)----|-(3)---5--5-5-5-|-3--3---3-3-3-|-3---3--3-3-3-|
|-^0----(0)----|-(0)---0--0-0-0-|-0--0---0-0-0-|-0---2--2-2-2-|
|-^0----(0)----|-(0)---0--0-0-0-|-2--2---2-2-2-|-2---0--0-0-0-|
|-^2----(2)----|-(2)---4--4-4-4-|-2--2---2-2-2-|-2------------|
|-^3----(3)----|-(3)---5--5-5-5-|--------------|--------------|


  G                               Em(type 2)           D
  Gtr III
   |  |  |  |||   |   ||  | | |    |  |  |  |||   |   ||  | | |
   /  /  /  ///   /   //  / / /    /  /  /  ///   /   //  / / /

  Gtr I
|-^3----(3)----|-(3)---5--5-5-5-|-^3----(3)----|-(3)---2--2-2-2-|
|-^3----(3)----|-(3)---5--5-5-5-|-^3----(3)----|-(3)---3--3-3-3-|
|-^0----(0)----|-(0)---0--0-0-0-|-^0----(0)----|-(0)---2--2-2-2-|
|-^0----(0)----|-(0)---0--0-0-0-|-^2----(2)----|-(2)---0--0-0-0-|
|-^2----(2)----|-(2)---4--4-4-4-|-^2----(2)----|-(2)------------|
|-^3----(3)----|-(3)---5--5-5-5-|--------------|----------------|


  G                               Em(type 2)         D
   |  |  |  |||   |   ||  | | |   |  |  || | |   |  ||  | | |
   /  /  /  ///   /   //  / / /   /  /  // / /   /  //  / / /

                                  Gtr II
|-^3----(3)----|-(3)---5--5-5-5-|-3--3---3-3-3-|-3---2--2-2-2-||
|-^3----(3)----|-(3)---5--5-5-5-|-3--3---3-3-3-|-3---3--3-3-3-||
|-^0----(0)----|-(0)---0--0-0-0-|-0--0---0-0-0-|-0---2--2-2-2-||
|-^0----(0)----|-(0)---0--0-0-0-|-2--2---2-2-2-|-2---0--0-0-0-||
|-^2----(2)----|-(2)---4--4-4-4-|-2--2---2-2-2-|-2------------||
|-^3----(3)----|-(3)---5--5-5-5-|--------------|--------------||

[ Tab from: http://www.guitartabs.cc/tabs/r/rivermaya/elesi_tab_ver_2.html ]
 Pre-Chorus
  C           G           Am          G
   |  ||||||   |  ||||||   |  ||||||   |  ||||||
   /  //////   /  //////   /  //////   /  //////

  Gtr I
|-----------|-^3--------|-^0--------|-^3--------|
|-^1--------|-^3--------|-^1--------|-^3--------|
|-^0--------|-^0--------|-^2--------|-^0--------|
|-^2--------|-^0--------|-^2--------|-^0--------|
|-^3--------|-^2--------|-^0--------|-^2--------|
|-----------|-^3--------|-----------|-^3--------|


  C           Em          D           G
   |  ||||||   |  ||||||   |  ||||||   |  ||||||
   /  //////   /  //////   /  //////   /  //////

|-----------|-^0--------|-^2--------|-^3--------|
|-^1--------|-^0--------|-^3--------|-^3--------|
|-^0--------|-^0--------|-^2--------|-^0--------|
|-^2--------|-^2--------|-^0--------|-^0--------|
|-^3--------|-^2--------|-----------|-^2--------|
|-----------|-----------|-----------|-^3--------|


  C           G           Am          G
   |  ||||||   |  ||||||   |  ||||||   |  ||||||
   /  //////   /  //////   /  //////   /  //////

|-----------|-^3--------|-^0--------|-^3--------|
|-^1--------|-^3--------|-^1--------|-^3--------|
|-^0--------|-^0--------|-^2--------|-^0--------|
|-^2--------|-^0--------|-^2--------|-^0--------|
|-^3--------|-^2--------|-^0--------|-^2--------|
|-----------|-^3--------|-----------|-^3--------|


  C                        F
   |  |||||    |   |||||    |  |||||    |   |||||
   /  /////    /   /////    /  /////    /   /////

|-----------|------------|-^1--------|-(1)--------||
|-^1--------|-(1)--------|-^1--------|-(1)--------||
|-^0--------|-(0)--------|-^2--------|-(2)--------||
|-^2--------|-(2)--------|-^3--------|-(3)--------||
|-^3--------|-(3)--------|-^3--------|-(3)--------||
|-----------|------------|-^1--------|-(1)--------||


 Chorus
  G                               Em(type 2)           D
  |  |  | | | |   |  | |  | | |   |  |  | | | |   |  | |  | | |
  /  /  / / / /   /  / /  / / /   /  /  / / / /   /  / /  / / /

|-3--3--3-3-3-3-|-3--3-5--5-5-5-|-3--3--3-3-3-3-|-3--3-2--2-2-2-|
|-3--3--3-3-3-3-|-3--3-5--5-5-4-|-3--3--3-3-3-3-|-3--3-3--3-3-3-|
|-0--0--0-0-0-0-|-0--0-0--0-0-0-|-0--0--0-0-0-0-|-0--0-2--2-2-2-|
|-0--0--0-0-0-0-|-0--0-0--0-0-0-|-2--2--2-2-2-2-|-2--2-0--0-0-0-|
|-2--2--2-2-2-2-|-2--2-4--4-4-4-|-2--2--2-2-2-2-|-2--2----------|
|-3--3--3-3-3-3-|-3--3-5--5-5-5-|---------------|---------------|


                                                 1.
  G                               Em(type 2)           D
  |  |  | | | |   |  | |  | | |   |  |  | | | |   |  | |  | | |
  /  /  / / / /   /  / /  / / /   /  /  / / / /   /  / /  / / /

|-3--3--3-3-3-3-|-3--3-5--5-5-5-|-3--3--3-3-3-3-|-3--3-2--2-2-2-||
|-3--3--3-3-3-3-|-3--3-5--5-5-4-|-3--3--3-3-3-3-|-3--3-3--3-3-3-||
|-0--0--0-0-0-0-|-0--0-0--0-0-0-|-0--0--0-0-0-0-|-0--0-2--2-2-2-||
|-0--0--0-0-0-0-|-0--0-0--0-0-0-|-2--2--2-2-2-2-|-2--2-0--0-0-0-||
|-2--2--2-2-2-2-|-2--2-4--4-4-4-|-2--2--2-2-2-2-|-2--2----------||
|-3--3--3-3-3-3-|-3--3-5--5-5-5-|---------------|---------------||


 Guitar Solo
  C                   G                 Am                  G
  Gtr III
   |     | |  || ||   |   | |  || ||     |     | |  || ||   |   | | |  |   ||
   /     / /  // //   /   / /  // //     /     / /  // //   /   / / /  /   //

  Gtr II
|-------------------|-----------------|-------------------|------------------|
|-------------------|-----------------|-------------------|---------8-(8)---|
|-------------------|-----------------|-------------------|-------7----------|
|-10-10-10-9--7--7-|-9-9-9-7--5--5/-|-10-10-10-9--7--7-|-9-9-9------------|
|-------------------|-----------------|-------------------|------------------|
|-------------------|-----------------|-------------------|------------------|


  C                   G                C
   |     | |  || ||   |   | |  || ||   |  || || | |   |    ||| || |
   /     / /  // //   /   / /  // //   /  // // / /   /    /// // /

|-------------------|----------------|-------------|---------------|
|-------------------|----------------|-------------|---------------|
|-------------------|----------------|---------/7--|-(7)-5---4-----|
|-10-10-10-9--7--7-|-9-9-9-7--5--5-|-----5-------|------------7--|
|-------------------|----------------|-7-----------|---------------|
|-------------------|----------------|-------------|---------------|


  F                          G
  |  ||| |||   |   |||||  |  |  | ||||   |   || |||
  /  /// ///   /   /////  /  /  / ////   /   // ///

|-----------|--------------|----------|------------|
|-----------|----------2/--|-8--------|-(8)--------|
|-----------|--------------|----------|------------|
|-5----7----|-(7)----------|----------|------------|
|-----------|--------------|----------|------------|
|-----------|--------------|----------|------------|


  Em(type 2)           D        G
   |   | ||||    |    || ||  |   |  | ||||    |   || |||
   /   / ////    /    // //  /   /  / ////    /   // ///

|------------|------------0/--|-10--------|-(10)--------|
|------------|----------------|-----------|-------------|
|---------|-()----------|-----------|-------------|
|------------|----------------|-----------|-------------|
|------------|----------------|-----------|-------------|
|------------|----------------|-----------|-------------|


                                      2.
  Em(type 2)            D                  D
                                      Gtr III
    |   | ||||    |    ||      |||    |  | |  | | |
    /   / ////    /    //      ///    /  / /  / / /

                                      Gtr I
                  1/      2/
|-(10)--------|-(10)-----(10)-----||-3--3-2--2-2-2-||
|-------------|-------------------o||-3--3-3--3-3-3-||
|-------------|--------------------||-0--0-2--2-2-2-||
|-------------|--------------------||-2--2-0--0-0-0-||
|-------------|-------------------o||-2--2----------||
|-------------|--------------------||---------------||


   Out-Chorus
    G                                                                       ED(type 2)
    Gtr III
     |            |            |    |||   |            |      |          |||
     /            /            /    ///   /            /      /          ///

    Gtr I
||--15-15-15-15-(15)-15-15-15-15-15----|-15-15-15-15-(15)-15-15-15-15-15------|
||o-15-15-15-15-(15)-15-15-15-15-15----|-15-15-15-15-(15)-15-15-15-15-15------|
||-------------------------------------|--------------------------------------|
||-------------------------------------|--------------------------------------|
||o------------------------------------|--------------------------------------|
||-------------------------------------|--------------------------------------|


  Em(type 2)                                               D
   |            |            |    |||   |            |      |          |||
   /            /            /    ///   /            /      /          ///

|-15-15-15-15-(15)-15-15-15-15-15----|-15-15-15-15-(15)-15-15-15-15-15------||
|-15-15-15-15-(15)-15-15-15-15-15----|-15-15-15-15-(15)-15-15-15-15-15-----o||
|------------------------------------|--------------------------------------||
|------------------------------------|--------------------------------------||
|------------------------------------|-------------------------------------o||
|------------------------------------|--------------------------------------||


    G                                 Em(type 2)            D
    |  |   | | | |   |  | |   | | |   |  |   | | | |   |  | |   | | |
    /  /   / / / /   /  / /   / / /   /  /   / / / /   /  / /   / / /

||--3--3---3-3-3-3-|-3--3-5---5-5-5-|-3--3---3-3-3-3-|-3--3-2---2-2-2---||
||o-3--3---3-3-3-3-|-3--3-5---5-5-4-|-3--3---3-3-3-3-|-3--3-3---3-3-3--o||
||--0--0---0-0-0-0-|-0--0-0---0-0-0-|-0--0---0-0-0-0-|-0--0-2---2-2-2---||
||--0--0---0-0-0-0-|-0--0-0---0-0-0-|-2--2---2-2-2-2-|-2--2-0---0-0-0---||
||o-2--2---2-2-2-2-|-2--2-4---4-4-4-|-2--2---2-2-2-2-|-2--2------------o||
||--3--3---3-3-3-3-|-3--3-5---5-5-5-|----------------|------------------||
|
|   Gtr IV
||-----------------|----------------|----------------|------------------||
||o--------8-8-----|--------8-8-----|--------8-8-----|--------8-8------o||
||-----------------|----------------|----------------|------------------||
||-------5---------|------5---------|------5---------|------5-----------||
||o----------------|----------------|----------------|-----------------o||
||-----------------|----------------|----------------|------------------||


  G
  |      |         |               |               |
  /      /         /               /               /

|-3-----(3)-----|-(3)-----------|-(3)-----------|-(3)-----------*|
|-3-----(3)-----|-(3)-----------|-(3)-----------|-(3)-----------*|
|-0-----(0)-----|-(0)-----------|-(0)-----------|-(0)-----------*|
|-0-----(0)-----|-(0)-----------|-(0)-----------|-(0)-----------*|
|-2-----(2)-----|-(2)-----------|-(2)-----------|-(2)-----------*|
|-3-----(3)-----|-(3)-----------|-(3)-----------|-(3)-----------*|
|
|                       >
|---------------|---------------|---------------|---------------*|
|--------8--8---|---------8-8---|---------8-8---|---------8-8---*|
|---------------|---------------|---------------|---------------*|
|-----5---------|-------5-------|-------5-------|-------5-------*|
|---------------|---------------|---------------|---------------*|
|---------------|---------------|---------------|---------------*|


Tablature Legend
----------------
 h   - hammer-on
 p   - pull-off
 b   - bend
 pb  - pre-bend
 r   - bend release (if no number after the r, then release immediately)
 /  - slide into or out of (from/to "nowhere")
 s   - legato slide
 S   - shift slide
  - natural harmonic
[n]  - artificial harmonic
n(n) - tapped harmonic
 ~   - vibrato
 tr  - trill
 T   - tap
 TP  - trem. picking
 PM  - palm muting
n/  - tremolo bar dip; n = amount to dip
 n  - tremolo bar down
 n/  - tremolo bar up
/n  - tremolo bar inverted dip
 =   - hold bend; also acts as connecting device for hammers/pulls
   - volume swell (louder/softer)
 x   - on rhythm slash represents muted slash
 o   - on rhythm slash represents single note slash

Misc Legend
-----------
 |  - bar
||  - double bar
||o - repeat start
o|| - repeat end
*|  - double bar (ending)
 :  - bar (freetime)
 $  - Segno
 &  - Coda
Tempo markers -  = BPM(8/16=s8/s16), where s8 = swing 8ths, s16 = swing 16ths
Comments