Rivermaya - Bye Bye Na Chords & Tabs

 

Bye Bye Na Chords & Tabs

Rivermaya Chords & Tabs

Version: 1 Type: Tab 0 ratings
1 star 2 stars 3 stars 4 stars 5 stars
comments

Bye Bye Na Tab

   
e|------2-3-5-3-2-0------2-3-0------2-3-5-3-2-0----2-3-0------|
B|------------------------------------------------------------|
G|------------------------------------------------------------|
D|---2----------------2----------2--------------2-------------|
A|--3----------------3----------3--------------3--------------|
E|------------------------------------------------------------|

e|------------------------------------------------------------|
B|------------------------------------------------------------|
G|------0-3------0-3------------------------------------------|
D|----2--------2----------------------------------------------|
A|---3--------3-----------------------------------------------|
E|-0-------0--------------------------------------------------|

Chords: C-Am-F-G (capo on 1ST fret)

Verse 1: 

C     Am   	 F        G     C     Am        F-G
HEto na ang gabi na ikaw ay aalis at iiwan mo ako    
C     Am   	 F         G        C      Am   	   F-G
Sa lahat ng gabi to ang ayaw dumating sana ay umaga na

[ Tab from: http://www.guitartabs.cc/tabs/r/rivermaya/bye_bye_na_tab.html ]
G#			G#m	G# 	G#m         G#
Tatawagan mo pa rin ba ako susulatan mo pa ba ako tayo pa 
	    G#m	G#-Bb
rin bang dalawa kahit...
C-G   F   C-G   F    C-G      F    C     G      F
Babye na aalis kana babye narin ba sa ating alaala

Do: Intro

Verse 2:

C	 Am 	 F	    G	       C          Am
Meron kang makikitang mas higit pa sa akin pag ikay malayo 
F-G
Na


G#		G#m	  G# 		G#m         G#
Tatawagan mo pa rin ba ako susulatan mo pa ba ako tayo pa 
	    G#m	G#-Bb
rin bang dalawa kahit...
C-G   F   C-G   F    C-G      F    C     G      F
Babye na aalis kana babye narin ba sa ating alaala


Am		F	   G            Am  		F    E
Wag mong lilimutin na nandito lang ako, hawak ang larawan mo....


G#			G#m	G# 	G#m         G#
Tatawagan mo pa rin ba ako susulatan mo pa ba ako tayo pa 
	    G#m	G#-Bb
rin bang dalawa kahit...
C-G   F   C-G   F    C-G      F    C     G      F
Babye na aalis kana babye narin ba sa ating alaala
Comments