Rivermaya - Balisong Chords & Tabs

 

Balisong Chords & Tabs

Rivermaya Chords & Tabs

Version: 4 Type: Tab 0 ratings
1 star 2 stars 3 stars 4 stars 5 stars
comments

Balisong Tab

"Balisong"
 Rivermaya


tabber: marvin somera
      (marvzzz69@yahoo.com)

I really love this song, it very easy to play!
figure it out yourself! chow....


verse:

------0----2------0----5---4----2----0--------------|
------------------------------------------2---------|
----------------------------------------------------|
-----------0--------------------0------------------|
------4-----------4-----------------------4---------|
----------------------------------------------------|


----------------------------------------------------|
-------------5-----7--------7-----------------------|
-------------6-----7--------7-----------------------|
--------4-------------------------------------------|
----4--------------5-----5--------------------------|
----------------------------------------------------|

[ Tab from: http://www.guitartabs.cc/tabs/r/rivermaya/balisong_tab_ver_4.html ]
Your face lights up the sky on the highway. 
Someday, you'll share your world with me someday. 
You mesmerize me with diamond eyes; 
I try to fool myself to think I'll be alright. 
But I am losing all control - 
My mind, my heart, my body and my soul 

chorus:
----------------------------------------------------|
----------------------------------------------------|
---------------9-------7----------------------------|
-----7---------9-------7--------9-------------------|
-----7---------7-------5--------9-------------------|
-----5--------------------------7-------------------|

Never in my life have I been more sure, 
So come on up to me and close the door. 
Nobody's made me feel this way before; 
You're everything I wanted and more. 


To speak or not to; where to begin. 
The way dilemmas I'm finding myself in. 
For all I know you only see me as a friend. 
I try to tell myself wake up fool; this fairy tale's got to end. 

chorus:
"Never in my life have I been more sure, 
So come on up to me and close the door. 
Nobody's made me feel this way before; 
You're everything I wanted (more)." (Repeat 2x) 

You're everything I wanted
Comments