Rivermaya - 214 Chords & Tabs

 

214 Chords & Tabs

Rivermaya Chords & Tabs

Version: 5 Type: Tab 0 ratings
1 star 2 stars 3 stars 4 stars 5 stars
comments

214 Tab

   
#----------------------PLEASE NOTE------------------------#
# This file is the author's own work and represents       #
# their interpretation of the song. You may only use this #
# file for private study, scholarship, or research.       #
#---------------------------------------------------------#


 Song Title: 214
 Artist: River Maya
 Album: River Maya
 Transcribed by: geoffrey b oblimar

 Here's a simple tab for this brilliant song, enjoy...

 intro:
  (keyboards)

  riff 1:  (clean tone w/ flanger)
  
  (neck pick up)
 e|-----------------------------------------|
 B|-----------------------------------------|
 G|-----------------------------------------|
 D|-----2----sl/6--4--2--5-4-2h4p2----------|
 A|---2---2------------------------5-5sl/7--|
 E|-0---------------------------------------|

                                                         (flanger out) 
 e|--------------------------------------------------------|
 B|--------------------------------------------------------|
 G|--------------------------------------------------------|
 D|-----2----sl/6--4--2--5-4-2h4p2----------6h7p6--2h4p2---|
 A|---2---2------------------------5-5sl/7-----------------|
 E|-0------------------------------------------------------|

 
 verse 1:
 D     E
 Am I real?
         Bm7                               E
 Do the words I speak before you make you feel?
           Bm7                              A 
 That the love I have for you will see no ending?
               Am                                 E  
 Well, if you look into my eyes, then you should know 
           Bm7                                    E            
 That you have nothing here to doubt, nothing to fear
           Bm7                                          A
 And you can lay your questions down, 'cause if you'll hold me
         Am                             G                      
 We can fade into the night and you'll know


 chorus:
      Em         Bm7      C             G       
 The world could die and everything may lie
    Em                D C-D-G   
 Still you shouldn't cry 
   Em             Bm7       C                G
 'cause time may pass but longer than it'll last 
         Em        D  C-D-(do the guitar intro)            
 I'll be by your side
 

 verse 2: (do chord of verse 1)

 Take my hand 
 And gently close your eyes so you could understand 
 That there is no greater love tonight than what I have for you
 Well, if you feel the same way for me, then let to
 We can journey, a garden no one knows
 Life is short my darling, tell me that you love
 So we can fade into the night and you'll know

 (repeat chorus)
[ Tab from: http://www.guitartabs.cc/tabs/r/rivermaya/214_tab_ver_5.html ]
 solo: (Perf de Castro's tasty lick, w/ fair distortion & a bit of reverb.)
 
 (bridge pick up)
        G          Em                   Bm7                        C
                   AH                   AH         PM. . .         AH                      
 e|----------------------------------------------------------------------|
 B|----------------------------------------------------------------------|
 G|--sl/7~~--------7-b-9-r-7------5-----4-b-5-r-4------------------------|
 D|------------------------------------------------4-5-7-4-h-5--5--5~\sl-|
 A|----------------------------------------------------------------------|
 E|----------------------------------------------------------------------|

    G              Em                  
    PM       PM...
 e|------------------------------------
 B|---7sl/8--8-10--10sl/12--12sl/15-17-
 G|-0----------------------------------
 D|------------------------------------
 A|------------------------------------
 E|------------------------------------

    Bm7                         C
                             
   ---------------------------------------|
   -19-20-19-19b20r19-17-17b19r15--15~\sl-|
   ------------------------------17-------|
   ---------------------------------------|
   ---------------------------------------|
   ---------------------------------------|

    G        Em             Bm7             C 
            hold----|               hold----|
 e|-------17b19------19-17-15h17b19-17b19-19-19r15~--
 B|-17p15--------------------------------------------
 G|--------------------------------------------------
 D|--------------------------------------------------
 A|--------------------------------------------------
 E|--------------------------------------------------

                                      Em                
                                      WB(dive whole step)
   -----------------------------------------------------
   ------17-15------------------------------------------
   -sl/15-----17-15-15b17\sl----------------------------
   -------------------------14\sl12---------------------
   ----------------------------------*14-b-16-\\\\\\\sl-
   -----------------------------------------------------
                                     *maintain a "B pitch" while diving 
                                      & bending the note simultaneously

    
           8a-----------------------------------------------|
   ----------15h17h19--15h17h19--15h17h19------------------------|
   -sl/17~-17--------17--------17--------17-15--15---------------|
   -------------------------------------------17--17-15--15------|
   ----------------------------------------------------17--17~~--|
   --------------------------------------------------------------|
   --------------------------------------------------------------|
     

  C
 I want you to know...

 (repeat chorus except last line)

 And everything won't last, but I'll be by your side
 Forever by your side, forever by your side
 So you won't cry


  outro:  (clean tone w/ flanger)
  
  (neck pick up)
 e|-----------------------------------------|
 B|-----------------------------------------|
 G|-----------------------------------------|
 D|------2----sl/6--4--2--5-4-2h4p2---------|
 A|----2---2------------------------5-5sl/7-|
 E|--0--------------------------------------|


 e|---------------------------------------------------------------|
 B|---------------------------------------------------------------|
 G|---------------------------------------------------------------|
 D|-----2---sl/6--4--2--5-4-2h4p2---5-4-2h4p2---5-4-2h4p2---------|
 A|---2---2------------------------------------------------5sl/7--|
 E|-0-------------------------------------------------------------|



 Legend:
  AH  -artificial harmonic
  b   -bend
  r   -release
  PM  -palm muting
  h   -hammer-on
  p   -pull-off
  sl/ -slide, only the first note is struck
  /   -slide, both notes are struck
  ~   -vibrato
  WB  -whammy/tremolo bar


 Comments? e-mail: gboblimar@hotmail.com
Comments