Rivermaya - 214 Chords & Tabs

 

214 Chords & Tabs

Rivermaya Chords & Tabs

Version: 12 Type: Tab 0 ratings
1 star 2 stars 3 stars 4 stars 5 stars
comments

214 Tab

   
#----------------------------------PLEASE NOTE---------------------------------#
#This file is the author's own work and represents their interpretation of the #
#song. You may only use this file for private study, scholarship, or research. #
#------------------------------------------------------------------------------#



Artist:Rivermaya
Song:214
Tabbed by:Oscar Ramos
Email:xbitz_3@yahoo.com

Tuning: EADBGe (Standard)

Intro:

e|--------8-|----------10-|-10-10-15-17-15-14---|-15-14-15----15----15----15-|
B|------8---|-------10----|-12------------------|----------15----13----12----|
G|----9-----|----11-------|-12---------------15-|----------------------------|
D|-10-------|-12----------|---------------------|----------------------------|
A|----------|-------------|---------------------|----------------------------|
E|----------|-------------|---------------------|----------------------------|

e|-------------|-3-----3-|-------2-|-0-|-2-|
B|-12-10-12-10-|-----0---|-----3---|-1-|-3-|intro keyboard dapat yan
G|-------12-11-|---0-----|---2-----|-0-|-2-|pro try nyo kung gusto nyo lng
D|-------------|---------|-0-------|-2-|-0-|
A|-------------|-0-------|---------|-3-|---|
E|-------------|---------|---------|---|---|

e|---------|---------|--------------------|---------|---------|--------------------|
B|---------|---------|--------------------|---------|---------|--------------------|
G|---------|---------|--------------------|---------|---------|--------------------|
D|-----2---|-4s6 4-2-|-5-4-2h4p2---7-7s9--|-----2---|-4s6 4-2-|-5-4-2h4p2---7-7s9--|
A|---2---2-|---------|-3---------3-5-5s7--|---2---2-|---------|-3---------3-5-5s7--|
E|-0-------|---------|--------------------|-0-------|---------|--------------------|

e|---------------|
B|---------------|
G|---------------|
D|---6h7p6-2h4p2-|
A|---------------|
E|-0-------------|

Verse1:

       E
 Am I real?
         Bm7                               E
 Do the words I speak before you make you feel
           Bm7                              A 
 That the love I have for you will see no ending
               Am                                 E  
 Well, if you look into my eyes, then you should know 
           Bm7                                 E            
 That you have nothing here to doubt, nothing to fear
           Bm7                                          A
 And you can lay your questions down, 'cause if you'll hold me
         Am                             G                      
 We can fade into the night and you'll know

Chorus:

     Em         Bm7      C             G       
 The world could die and everything may lie
    Em                D C-D   
 Still you shouldn't cry 
    G  Em        Bm7       C           G
 Cause time may pass but longer than it'll last 
         Em        D            
 I'll be by your side

( Do intro )

Verse2: ( same as verse1 )
        E
 Take my hand 
         Bm7                               E      
 And gently close your eyes so you could understand 
           Bm7                              A
 That there is no greater love tonight than what I've for you
       Am                                   E 
 Well, if you feel the same way for me then let to go
   Bm7                                 E 
 We can journey into a garden no one knows
    Bm7                                    A
 Life is short, my darling, tell me that you love
        Am                             G
 So we can fade into the night and you'll know
[ Tab from: http://www.guitartabs.cc/tabs/r/rivermaya/214_tab_ver_12.html ]
( repeat chorus )

Adlib:

e|--------------------|---------------|------------------10-12-10-12-10-15--|
B|--------------------|---------------|-8-10-8-10-8-10/12-------------------|
G|-/7-7h9p7-5-4h5p4---|---------------|-------------------------------------|
D|------------------5-|-5h7p5---------|-------------------------------------|
A|--------------------|-------7-10-10-|-------------------------------------|
E|--------------------|---------------|-------------------------------------|

e|-14/15-14-12-10/12-10-8-10-|-/10-b17b17-17-15-17-|-b17-19-17-15-|-/12-10------------|------------|
B|---------------------------|---------------------|--------------|--------12-10-b10-10------------|
G|---------------------------|---------------------|--------------|---------------------12-11-12\--|
D|---------------------------|---------------------|--------------|--------------------------------|
A|---------------------------|---------------------|--------------|---------------------------10\--|
E|---------------------------|---------------------|--------------|--------------------------------|

e|-/12------------19hp17p15-----------------------||
B|-----15------15-----------17-15-13p12h13p12-----||
G|-------16-14--------------------------------14--||
D|------------------------------------------------||
A|------------------------------------------------||
E|------------------------------------------------||
       
 (same as chorus)
 The world could die and everything may lie
 Still you shouldn't cry
 Cause time may pass and everything won't last,
 But I'll be by your side           
 Forever by your side, forever by your side
 So you won't cry

Out-Chorus Adlib:

e|-b17-b17r17-b17-17-15-17-|-b15-b17-17-15-17-b13-|-b13-------------------------12h15/17-b17-|
B|-------------------------|----------------------|--------------------12h13h15--------------|
G|-------------------------|----------------------|-----------11h12h14-----------------------|
D|-------------------------|----------------------|-----12h14--------------------------------|
A|-------------------------|----------------------|------------------------------------------|
E|-------------------------|----------------------|------------------------------------------|

e|-b17r17-b17-15-b17--||
B|--------------------||
G|--------------------||
D|--------------------||
A|--------------------||
E|--------------------||


Outro:

e|---------|---------|--------------------|---------|---------|---------------------|
B|---------|---------|--------------------|---------|---------|---------------------|End at E
G|---------|---------|--------------------|---------|---------|---------------------|
D|-----2---|-4s6 4-2-|-5-4-2h4p2---7-7s9--|-----2---|-4s6 4-2-|-5-4-2---4s6-4-2-0-2-|
A|---2---2-|---------|-3---------3-5-5s7--|---2---2-|---------|-3-----3-------------|
E|-0-------|---------|--------------------|-0-------|---------|---------------------|

Chords:


E:                Bm7:                A:                  Am:
0       7         0          7        0          5        0         5
0       9         3          7        2          5        1         5
1   or  9         4     or   7        2     or   6        2    or   5
2       9         4          9        2          7        2         7
2       7         2          9        0          7        0         7
0       7         2          7        0          5        0         5

sa verse part lng yan yung sa chorus ganon p rin

Legend:

| b  bend
| /  slide up
| \  slide down
| h  hammer-on
| p  pull-off
| ~  vibrato
| +  harmonic
| x  Mute note

Comment?Email or Message lng sa friendster..
xbitz_3@yahoo.com ramos06_oscar@yahoo.com add nyo n lng testi din pde heheheh...
Kung sa tingin nyo mhirap try nyo download ung guitar pro ver. q ung 214ver 2
Comments