Riverdales - Storm The Streets Chords & Tabs

 

Storm The Streets Chords & Tabs

Riverdales Chords & Tabs

Version: 1 Type: Tab 0 ratings
1 star 2 stars 3 stars 4 stars 5 stars
comments

Storm The Streets Tab

   
“The Riverdales”
Record- Storm the Streets
Album- Same
Tabbed by: D.Drake

Standard Tuning
Cords used= barred A, G, D, E
Intro
|----------------------------------------------------|
|----------------------------------------------------|
|----------------------------------------------------|
|-5/7-7-7-7-7-7-7-7----------------------------------|
|-5/7-7-7-7-7-7-7-7—(4 times)------------------------|
|-3/5-5-5-5-5-5-5-5----------------------------------|

Verse
|----------------------------------------------------|
|----------------------------------------------------|
|-----------7-7-9-9----------------------------------|
|-7-7-7-7-7-7-7-9-9-7-7-7-7-7-7-7-7-7-7-7-7-7-7-7----|
|-7-7-7-7-7-5-5-7-7-7-7-7-7-7-7-7-7-7-7-7-7-7-7-7----| (2 times)
|-5-5-5-5-5---------5-5-5-5-5-5-5-5-5-5-5-5-5-5-5----|
[ Tab from: http://www.guitartabs.cc/tabs/r/riverdales/storm_the_streets_tab.html ]
Chorus
|---------------------------------------------------------------|
|---------------------------------------------------------------|
|-7-7-7-7-7-9-9-9-9-9-7-7-7-7-----------7-7-7-7-7-9-9-9-9-9-----|
|-7-7-7-7-7-9-9-9-9-9-7-7-7-7-7-7-7-7-7-7-7-7-7-7-9-9-9-9-9-----|
|-5-5-5-5-5-7-7-7-7-7-5-5-5-5-7-7-7-7-7-5-5-5-5-5-7-7-7-7-7-----|
|-----------------------------5-5-5-5-5-------------------------|

Bridge
|-----------------------------------| |---------------------------------|
|-----------------------------------| |---------------------------------|
|-----7-7-9-9-9-9-9-9-----7-7-9-9-9-| |--7-7----------------------------|
|-7-7-7-7-9-9-9-9-9-9—7-7-7-7-9-9-9-| |--7-7-7-7-7-7-7-7-7-7------------|
|-7-7-5-5-7-7-7-7-7-7-7-7-5-5-7-7-7-| |--5-5-7-7-7-7-7-7-7-7-(3 times)--|
|-5-5-----------------5-5-----------| |------5-5-5-5-5-5-5-5------------|


|-----------------------------------------------------------------|
|-----------------------------------------------------------------|
|-7-7-------------------------------------------------------------|
|-7-7-7-7-7-7-7/5-5-5-5-5/7-7-7-7-7-7-7-7-7-7/5/7-7-7-7-7-7-7-7---|
|-5-5-7-7-7-7-7/5-5-5-5-5/5-5-5-5-5-5-5-5-5-5/5/7-7-7-7-7-7-7-7---|
|-----5-5-5-5-5/3-3-3-3-3/5-5-5-5-5-5-5-5-5-5/3/5-5-5-5-5-5-5-5---|
                                              Intro again 1x then to Verse 

Enjoy!
27
Comments