Riverdales - Metal Retard Chords & Tabs

 

Metal Retard Chords & Tabs

Riverdales Chords & Tabs

Version: 1 Type: Tab 0 ratings
1 star 2 stars 3 stars 4 stars 5 stars
comments

Metal Retard Tab

Artist: Riverdales
Song: Mental Retard
Album: Storm the streets
Tabbed by: Schteban ( stefarends@hotmail.com )

Verse 1
e -----------------------------------------------------------------------|
B -----------------------------------------------------------------------|
G -11-111111111111-9-999999-7-777-4-444-11-111111111111------------------|
D -11-111111111111-9-999999-7-777-4-444-11-111111111111---   X 2   ------|
A --9--9-9-9-9-9-9-7-777777-5-555-2-222--9--9-9-9-9-9-9------------------|
E ---------------------------------------*-------------------------------|

Verse 2
e -----------------------------------------------------------------------|
B -----------------------------------------------------------------------|
G -------------------11-111111111111111111111111-------------------------|
D -77777777-99999999-11-111111111111111111111111-------------------------|
A -77777777-99999999--9--9-9-9-9-9-9-9-9-9-9-9-9-------------------------|
E -55555555-77777777-----------------------------------------------------|
[ Tab from: http://www.guitartabs.cc/tabs/r/riverdales/metal_retard_tab.html ]
e -----------------------------------------------------------------------|
B -----------------------------------------------------------------------|
G -77777777----------11-111111111111111111111111-------------------------|
D -77777777-99999999-11-111111111111111111111111---------   X 2   -------|
A -55555555-99999999--9--9-9-9-9-9-9-9-9-9-9-9-9-------------------------|
E ----------77777777-----------------------------------------------------|

Verse 3
e -----------------------------------------------------------------------|
B -----------------------------------------------------------------------|
G --------11--------9----------------------------------------------------|
D -9-9999-11-7-7777-9---  X 4  ------------------------------------------|
A -9-9999--9-7-7777-7----------------------------------------------------|
E -7-7777----5-5555------------------------------------------------------|

Bridge
e -----------------------------------------------------------------------|
B -----------------------------------------------------------------------|
G ---------------9-------------------------------------------------------|
D -9999999999999-9--- Play this after the 6th “mentally retarded”--------|
A –9999999999999-7-------------------------------------------------------|
E -7777777777777---------------------------------------------------------|

Play the song in this order:
Verse 1
Verse 2
Verse 3
Verse 1
Verse 2
Verse 3
Bridge
Verse 3
Verse 1
Verse 2
Verse 3
Bridge
Verse 3
Verse 1 *end on this note
Comments