Riverdales - Last Stop Tokyo Chords & Tabs

 

Last Stop Tokyo Chords & Tabs

Riverdales Chords & Tabs

Version: 1 Type: Tab 0 ratings
1 star 2 stars 3 stars 4 stars 5 stars
comments

Last Stop Tokyo Tab

Band: The Riverdales
Song: Last Stop Tokyo
Tabbed by: Joe MacFadzen


Riff 1:   ----------------------------------------|
          ----------------------------------------|
          ------------5-5-5-5----5-5-5-5----------|
          --2------5--5-5-5-5--5-5-5-5-5-5-5-5-5--|
          --2-x16--5--3-3-3-3--5-3-3-3-3-5-5-5-5--|
          --0------3-----------3---------3-3-3-3--|

Riff 2:   -----------------------------------|
          -----------------------------------|
          --5------7------9-----7-----5------|
          --5-x16--7-x16--9-x8--7-x8--5-x32--|
          --3------5------7-----5-----3------|
          -----------------------------------|
[ Tab from: http://www.guitartabs.cc/tabs/r/riverdales/last_stop_tokyo_tab.html ]
Riff 3:    pm    pm    pm    pm
          --------------------------|
          --------------------------|
          --------------5-----7-----|
          --2-----5-----5-x8--7-x8--|
          --2-x8--5-x8--3-----5-----|
          --0-----3-----------------|

Riff 4:    pm    pm    pm
          --------------------------|
          --------------------------|
          --------------5-----7-----|
          --2-----5-----5-x8--7-x8--|
          --2-x8--5-x8--3-----5-----|
          --0-----3-----------------|


Song Structure:

Riff 1:  4x
Riff 2:  1x
Riff 1:  4x
Riff 2:  1x
Riff 1:  2x
Riff 3:  3x
Riff 4:  1x
Riff 2:  1x
Riff 1:  4x  (but dont play the last chord 4x, only one quick time.)
Comments