Ritchie Valens - We Belong Together Chords & Tabs

 

We Belong Together Chords & Tabs

Ritchie Valens Chords & Tabs

Version: 1 Type: Tab 0 ratings
1 star 2 stars 3 stars 4 stars 5 stars
comments

We Belong Together Tab

e------------------------------------------------------------------------|
b-1--3--1----------------------------------------------------------------|
g----------2---------0--2---------------0--0--2--3-----------------------|
d--------------3--3--------0---0--2--3-----------------------------------|
a---------------------------------------------------3--------------------|
e------------------------------------------------------------------------|
[ Tab from: http://www.guitartabs.cc/tabs/r/ritchie_valens/we_belong_together_tab.html ]
e------------------------------------------------------------------------|
b------------------------------------------------------------------------|
g-----------------0--2--------------0--0--2--3---------------------------|
d-----0--2--3--3--------0--0--2--3---------------------------------------|
a--3--------------------------------------------3------------------------|
e------------------------------------------------------------------------|
                 ^PLAY THIS LIKE 5 TIMES^
                  THE LAST PART IS DOWN HERE

e---------------------------------------------------|
b---------------------------------------------------|
g------------------0--2--3--3--3--2--0--------------|
d------0--2--3--3-----------------------3--3--0-----|
a---3---------------------------------------------3-|
e---------------------------------------------------|


                        I THINK THATS ALL OF THE SONG I KNOW

                 THISE SONG GOES TO MY BUD DAVE AND HER COUSIN DANIELLE
                                      YEA
Comments