Ritchie Valens - Summertime Blues Chords & Tabs

 

Summertime Blues Chords & Tabs

Ritchie Valens Chords & Tabs

Version: 1 Type: Tab 0 ratings
1 star 2 stars 3 stars 4 stars 5 stars
comments

Summertime Blues Tab

   
-----------------------------------------------------------------------------
			SUMMERTIME BLUES - Ritchie Valens
-----------------------------------------------------------------------------

Keep in mind I'm barely 13 & started playing guitar less than a year ago. I
tabbed it based on the way Ritchie Valens himself played it at his middle school
concert recorded on The Ritchie Valens Story, a great CD. Feal free to e-mail any
comments to me. Thanx!

Tabbed by:MAP
Email:Whitelion915@aol.com

Tuning:Standard

Main Riff:
  C
e|-------------------------|
B|-------------------------|
G|---0-0----0-----0-0-----0|
D|---2-2----2-----2-2-----2|
A|-------------------------|
E|0------0-----0-------0---|

Verse:
  C     F            C            F            C
e|0-0-0-1--1---1-1-1-0--0---0-0-0-1--1---1-1-1-0--0--------------------------
B|1-1-1-1--1---1-1-1-1--1---1-1-1-1--1---1-1-1-1--1--------------------------
G|0-0-0-2--2---2-2-2-0--0---0-0-0-2--2---2-2-2-0--0------0-0----0-----0-0----
D|2-2-2-3--3---3-3-3-2--2---2-2-2-3--3---3-3-3-2--2------2-2----2-----2-2----
A|3-3-3--------------3--3---3-3-3--------------3--3--------------------------
E|----------------------------------------------------0------0-----0------0--
[ Tab from: http://www.guitartabs.cc/tabs/r/ritchie_valens/summertime_blues_tab.html ]
            F            C                                       F
e|----0-0-0-1--1---1-1-1-0--0------------------------------0-0-0-1--1---1-1-1
B|----1-1-1-1--1---1-1-1-1--1------------------------------1-1-1-1--1---1-1-1
G|0---0-0-0-2--2---2-2-2-0--0------0-0----0-----0-0----00--0-0-0-2--2---2-2-2
D|2---2-2-2-3--3---3-3-3-2--2------2-2----2-----2-2----22--2-2-0-3--3---3-3-3
A|----3-3-3--------------3--3------------------------------3-3-0-------------
E|------------------------------0------0-----0------0------------------------

   C
e|-0--0|
B|-1--1|
G|-0--0|
D|-2--2|
A|-3--3|
E|-----|

Pre-Chorus:
  F
e|---------------------------------------------------------------------------
B|---1-1----1-----1-1----1---------------------------------1-1----1-----1-1--
G|---2-2----2-----2-2----2----------------------------2----2-2----2-----2-2--
D|--------------------------------------------------0------------------------
A|0------0-----0------0---------------------------3-----0------0-----0------0
E|---------------------------------------------------------------------------

e|---|
B|--1|
G|--2|
D|---|
A|---|
E|---|

Outro:
  C     F            C            F            C            F            C
e|0-0-0-1--1---1-1-1-0--0---0-0-0-1--1---1-1-1-0--0---0-0-0-1--1---1-1-1-0|
B|1-1-1-1--1---1-1-1-1--1---1-1-1-1--1---1-1-1-1--1---1-1-1-1--1---1-1-1-1|
G|0-0-0-2--2---2-2-2-0--0---0-0-0-2--2---2-2-2-0--0---0-0-0-2--2---2-2-2-0|
D|2-2-2-3--3---3-3-3-2--2---2-2-2-3--3---3-3-3-2--2---2-2-2-3--3---3-3-3-2|
A|3-3-3--------------3--3---3-3-3--------------3--3---3-3-3--------------3|
E|------------------------------------------------------------------------|

Order:
Main Riff
Verse
Pre-Chorus
Pause (Chorus)
Main Riff
Verse
Pre-Chorus
Pause (Chorus)
Main Riff
Verse
Pre-Chorus
Pause(Chorus)
Main Riff
Outro

| /  slide up
| \  slide down
| h  hammer-on
| p  pull-off
| ~  vibrato
| +  harmonic
| x  Mute note
==========================================================================
Comments