Rise Against - Voices Off Camera Chords & Tabs

 

Voices Off Camera Chords & Tabs

Rise Against Chords & Tabs

Version: 2 Type: Tab 0 ratings
1 star 2 stars 3 stars 4 stars 5 stars
comments

Voices Off Camera Tab

   
------------------------------------------------------------------------------------------
					Voices off Camera
					 by Rise Against
------------------------------------------------------------------------------------------
Dropped-D tuning

Tabbed by Daniel Miller

Flipskaterpsych@aol.com

~ = let ring
X = muted string
. = palm mute

Intro

e----------------------------------------------------------------------
B----------------------------------------------------------------------
G----------------------------------------------------------------------
D----------------------------------------------------------------------
A--5-----5-----5---1-----3-----3---1------1-----3----1-----1-----1-----
D----5-5---5-5---5---5-5---5-5---5---3-3----3-3---3----3-3---3-3---3---
     . .   . .   .   . .   . .   .   . .    . .   .    . .   . .   .


e-------------------------------------------------------------| 
B-------------------------------------------------------------| 
G-------------------------------------------------------------| 
D--------------------------------------0-----0------1------3--| 
A-1-----1-----1-----3-----3-----3--------1-1---1-1---------3--| 
D---1-1---1-1---1-----1-1---1-1---1------------------------3--| 
    . .   . .   .     . .   . .   .      . .   . .    


Verse 1
   8x    8x    8x    4x  4x
e---------------------------------------------------------------------------| 
B---------------------------------------------------------------------------| 
G--------------------3------------------------------------------------------| 
D--5-----3-----1-----3---3--------------------------------------------------| 
A--5-----3-----1-----1---3--------------------------------------------------| 
D--5-----3-----1---------3--------------------------------------------------| 


				2x's



Chorus(i stole this from the other tab by Playmusiclouder@YAHOO.COM)
e|---------------------------------------------------------------------------| 
B|---------------------------------------------------------------------------| 
G|--3-----------3-----------3------------------------------------------------| 
D|--3--5--3--1--3--5--3--1--3--5--3--1--5--3--1------------------------------| 
A|--1--5--3--1--1--5--3--1--1--5--3--1--5--3--1------------------------------| 
D|-----5--3--1-----5--3--1-----5--3--1--5--3--1------------------------------| 



Verse 2
e----------------------------------------------------------------------
B----------------------------------------------------------------------
G----------------------------------------------------------------------
D----------------------------------------------------------------------
A--5-----5-----5---1-----3-----3---1------1-----3----1-----1-----1-----
D----5-5---5-5---5---5-5---5-5---5---3-3----3-3---3----3-3---3-3---3---
     . .   . .   .   . .   . .   .   . .    . .   .    . .   . .   .

[ Tab from: http://www.guitartabs.cc/tabs/r/rise_against/voices_off_camera_tab_ver_2.html ]
e-------------------------------------------------------------| 
B-------------------------------------------------------------| 
G-------------------------------------------------------------| 
D--------------------------------------0-----0------1---------| 
A-1-----1-----1-----3-----3-----3--------1-1---1-1------------| 
D---1-1---1-1---1-----1-1---1-1---1---------------------------| 
    . .   . .   .     . .   . .   .      . .   . .

  




	8x    8x    8x    4x  4x
e---------------------------------------------------------------------------| 
B---------------------------------------------------------------------------| 
G--------------------3------------------------------------------------------| 
D--5-----3-----1-----3---3--------------------------------------------------| 
A--5-----3-----1-----1---3--------------------------------------------------| 
D--5-----3-----1---------3--------------------------------------------------| 

        


Chorus
e---------------------------------------------------------------------------| 
B---------------------------------------------------------------------------| 
G--3-----------3-----------3------------------------------------------------| 
D--3--5--3--1--3--5--3--1--3--5--3--1--5--3--1------------------------------| 
A--1--5--3--1--1--5--3--1--1--5--3--1--5--3--1------------------------------| 
D-----5--3--1-----5--3--1-----5--3--1--5--3--1------------------------------| 


Bridge
e---------------------------------------------------------------------------| 
B---------------------------------------------------------------------------| 
G--3-----------3-----------3------------------------------------------------| 
D--3--5--3--1--3--5--3--1--3--5--3--1--5--3--1------------------------------| 
A--1--5--3--1--1--5--3--1--1--5--3--1--5--3--1------------------------------| 
D-----5--3--1-----5--3--1-----5--3--1--5--3--1------------------------------| 

			2x's


e-------------------------| 
B-------------------------| 
G----------33-------------| 
D--55--11--33--33---------| 
A--55--11--11--33---------| 
D--55--11----- 33---------| 

	2x's


e----------------------------------------|
B----------------------------------------|
G------------------------------7-8-8-7-3-|
D--5-5-5-5---------------1-1-1-X-X-X-x-X-|
A--5-5-5-5------0-1-0----1-1-1-5-6-6-5-1-|
D--5-5-5-5--3-5-------3--1-1-1-----------|

		4x's



Chorus
e---------------------------------------------------------------------------| 
B---------------------------------------------------------------------------| 
G--3-----------3-----------3------------------------------------------------| 
D--3--5--3--1--3--5--3--1--3--5--3--1--5--3--1------------------------------| 
A--1--5--3--1--1--5--3--1--1--5--3--1--5--3--1------------------------------| 
D-----5--3--1-----5--3--1-----5--3--1--5--3--1------------------------------| 



Outro
e---------------------------------------------------------------------------| 
B---------------------------------------------------------------------------| 
G--3-----------3-----------3------------------------------------------------| 
D--3--5--3--1--3--5--3--1--3--5--3--1--5--3--1~-----------------------------| 
A--1--5--3--1--1--5--3--1--1--5--3--1--5--3--1~-----------------------------| 
D-----5--3--1-----5--3--1-----5--3--1--5--3--1~-----------------------------|
Comments