Rise Against - Swing Life Away Chords & Tabs

 

Swing Life Away Chords & Tabs

Rise Against Chords & Tabs

Version: 5 Type: Chords 0 ratings
1 star 2 stars 3 stars 4 stars 5 stars
comments

Swing Life Away Chords

   
I tabbed this song cause its so good and every tab i found online was pretty off so 
here ye go.


DROP D TUNING


Intro:

  D#5 F#5 B5  C#5 G#5
E---------------------|
B---------------------|
G----------4---6------|
D--1---4---4---6---6--|
A--1---4---2---4---6--|
D--1---4-----------6--|

Intro:

E--------------------------------------------------|
B---11---------------------------------------------|
G------11----13-11-10----11------------------------|
D---------11-------------11-(Play til end of bar)--|
A------------------------9-------------------------|
D------------------------9-------------------------|

E--------------------------------------------------|
B---11---------------------------------------------|
G------11----13-11-10----11------------------------|
D---------11-------------11-(Play til end of bar)--|
A------------------------9-------------------------|
D------------------------9-------------------------|

E--------------------------------------------------|
B---11---------------------------------------------|
G------11----13-11-10----11------------------------|
D---------11-------------11-(Play til end of bar)--|
A------------------------9-------------------------|
D------------------------9-------------------------|

E--------------------------------------------------|
B---11---------------------------------------------|
G------11----13-11-10----11--play this----11-------|
D---------11-------------11--a few times--11-------|
A------------------------9----and then----11-------|
D------------------------9-----play:------11-------|


              D#5          F#5        B5
Am I loud and clear, or am I breaking up?
                D#5          F#5        B5
Am I still your charm, or am I just bad luck?
    D#5        F#5            B5               C#5
Are we getting closer, or are we just getting more lost?

              D#5          F#5            B5
I'll show you mine, if you show me your's first.
              D#5         F#5        B5
Let's compare scars, I'll tell you who's is worse.
      D#5           F#5       B5                     C#5
Let's unwrite these pages and replace them with our own words...
[ Tab from: http://www.guitartabs.cc/tabs/r/rise_against/swing_life_away_crd_ver_5.html ]
   C#5           B5          F#5        G#5
We live on front porches and swing life away.
   C#5         B5           F#5     G#5
We get by just fine here on minimum wage.
   C#5       B5          F#5           G#5
If love is a labor, I'll slave til the end.
  C#5               B5            F#5         G#5
I won't cross these streets until you hold my hand.

               D#5         F#5                 B5
I been here so long, Think that's it's time to move.
                D#5            F#5      B5
The winter's so cold, summer's over too soon.
      D#5               F#5         B5          C#5
Let's pack our bags and settle down where palm trees grow.

              D#5          F#5        B5
I've got some friends, some that I hardly know.
              D#5          F#5        B5
But we've had some times I wouldn't trade for the world.
              D#5          F#5        B5
We chased these days down with talks of the places that we will go...

   C#5           B5          F#5        G#5
We live on front porches and swing life away.
   C#5         B5           F#5     G#5
We get by just fine here on minimum wage.
   C#5       B5          F#5           G#5
If love is a labor, I'll slave til the end.
  C#5               B5            F#5         G#5
I won't cross these streets until you hold my hand.

D#5   F#5  B5
Swing life away...
D#5   F#5  B5
Swing life away...
D#5   F#5  B5
Swing life away...
D#5   F#5  B5
Swing life away...


Ending:

E--------------------------------------------------|
B--------------------------------------------------|
G--3-----4-----------------------------------------|
D----4---4-----------------------------------------|
A------4-4-----------------------------------------|
D--------4-----------------------------------------|

Tabbed by Orestes
Email me for questions and cake recipes
oresteez@hotmail.com
Comments