Rise Against - State Of The Union Chords & Tabs

 

State Of The Union Chords & Tabs

Rise Against Chords & Tabs

Version: 3 Type: Tab

State Of The Union Tab

   
-------------------------------------------------------------------------------
			State Of The Union - Rise Against
-------------------------------------------------------------------------------
Tabbed by:thewrongreasons
Email:xmenfan487@yahoo.com

Tuning:Drop-D-DADGBE
Intro:
e|---------------------------------------------------------------------------|
B|---------------------------------------------------------------------------|
G|---------------------------------------------------------------------------|
D|-0000222244445555----------------------------------------------------------|
A|-0000222244445555--rep. 4x-------------------------------------------------|
D|-0000222244445555----------------------------------------------------------|
fig.1
e|---------------------------------------------------------------------------|
B|---------------------------------------------------------------------------|
G|---------------------------------------------------------------------------|
D|-244-30-022-30-244-30-022--244-30-022-30--0-2-4-5-4-2-0-0------------------|
A|-244-30-022-30-244-30-022--244-30-022-30--0-2-4-5-4-2-0-0------------------|
D|-244-30-022-30-244-30-022--244-30-022-30--0-2-4-5-4-2-0-0------------------|
pm                                          . . . . . .   .(short)
rep. fig.1 then...
[ Tab from: http://www.guitartabs.cc/tabs/r/rise_against/state_of_the_union_tab_ver_3.html ]
(Guitars 1&2) fig.2
e|---------------------------------------------------------------------------|
B|---------------------------------------------------------------------------|
G|---------------------------------------------------------------------------|
D|-50--50--577-750--50--7777777750-------------------------------------------|
A|-50--50--577-750--50--7777777750-------------------------------------------|
D|-50--50--577-750--50--7777777750-------------------------------------------|
Guitar 1 plays fig.2 once then...fig.3
e|---------------------------------------------------------------------------|
B|---------------------------------------------------------------------------|
G|-7-------------------------------------------------------------------------|
D|-x--(strum)---(then guitars 1&2)-5-5-5-7-----------------------------------|
A|-5-------------------------------5-5-5-7-----------------------------------|
D|---------------------------------5-5-5-7-----------------------------------|
play fig.1 2x for chorus
play fig.2&fig.3 again for verse
play fig.1 2x for chorus again
e|---------------------------------------------------------------------------|
B|---------------------------------------------------------------------------|
G|---------------------------------------------------------------------------|
D|-0-2-4-5-4-2-0-2-4-5-4-2-0-2-4-5-4-2---------------------------------------|
A|-0-2-4-5-4-2-0-2-4-5-4-2-0-2-4-5-4-2---------------------------------------|
D|-0-2-4-5-4-2-0-2-4-5-4-2-0-2-4-5-4-2---------------------------------------|
pm . . . . . . . . . . . . . . . . . .
e|---------------------------------------------------------------------------|
B|---------------------------------------------------------------------------|
G|---------------------------------------------------------------------------|
D|--------------------------------------------------------0-2-4-5-4-2--------|
A|--------------------------------------------------------0-2-4-5-4-2-rep.2x|
D|--2^-0-0-0050040020-2^-0-0-0050040020-2^-0-0-0050040020-0-2-4-5-4-2--------|
pm                                                        . . . . . .
e|---------------------------------------------------------------------------|
B|---------------------------------------------------------------------------|
G|---------------------------------------------------------------------------|
D|----0-0-0050040020--------------------------------------------------0------|
A|----0-0-0050040020--rep.3x then-------------------------------------0------|
D|-2^-0-0-0050040020--------------0-2-4-5-4-2-0-2-4-5-4-2-0-2-4-5-4-2-0------|
pm        .. .. .. .              . . . . . . . . . . . . . . . . . .

| /  slide up
| \  slide down
| h  hammer-on
| p  pull-off
| ~  vibrato
| +  harmonic
| x  Mute note
===============================================================================